Great music and such a weird music video from MGMT, an American psychedelic rock band founded by Benjamin Goldwasser and Andrew VanWyngarden :

YouTube

By loading the video, you agree to YouTube's privacy policy.
Learn more

Load video

Tuning: Standard

Intro Riff I

e|---------------------------------------------------------------------------|
B|---------------------------------------------------------------------------|
G|---------------------------------------------------------------------------|
D|-----7-----------5-----7-----------5---------------------------------------| (x2)
A|-----------7-----------------7---------------------------------------------|
E|---------------------------------------------------------------------------|

Intro Riff II

e|---------------------------------------------------------------------------|
B|---------------------------------------------------------------------------|
G|---------------------------------------------------------------------------|
D|-5-----7-----5-----3-----5-----7-----9-----7-----5-----7------5-----3-----5|
A|---------------------------------------------------------------------------|
E|---------------------------------------------------------------------------|

Verse Bass Line

e|---------------------------------------------------------------------------|
B|---------------------------------------------------------------------------|
G|---------------------------------------------------------------------------|
D|---------------------------------------------------------------------------| (x16)
A|---------------------------------------------------------------------------|
E|-----0-----3-----5-----0-----3-----5---------------------------------------|

Verse

Am
Riding in your tank like you own it
You keep on riding in your tank like you own it
I said you know I wanna check out your components
Girl, you know I wanna check out your components

Am
Bombing up the place like you own it
You keep on bombing up the place like you own it
I said you got the goods so baby won't you flaunt it
You got the good stuff baby won't you flaunt it, go on flaunt it

Chorus

F                       C
Said It's cool, you're touching my hand
Dm                   Am
Yeah it's cool, its cool, where we riding too?
F                                C
So come on sugar, you're touching my hand
Dm                                  Am
Yeah it's cool, it's cool, where we riding to?

Am
I'm playing my guitar like I own it
I keep on playing my guitar like I own it
I said you know you wanna check out my components
That's right you know you wanna check out my components

Am
You're touching on my hand like you own it
You keep on touching on my hand like you own it
I said you got the good stuff baby won't you flaunt it
I said you got the good stuff baby won't you flaunt it
Going flaunt it

Chorus

F                       C
Said it's cool, you're touching my hand
Dm                   Am
Yeah it's cool, it's cool, where we riding to?
F                                C
So come on sugar, touching my hand
Dm                                   Am
Yeah it's cool, it's cool, where we riding to?
F                    C
So come on
Dm                Am
Yeah come on, where we riding to?
F                       C
Yeah come on
Dm
 so come on
Am
I said, where we riding to?

Intro Riff

************************************

| /   slide up
| \   slide down
| h   hammer-on
| p   pull-off
| ~   vibrato
| +   harmonic
| x   Mute note
| b   Bend
| pb  Pre-bend
| br  Bend release
| pbr Pre-bend release
| brb Bend release bend

************************************

From “Time To Pretend” EP (2005).

Articles en rapport:

Écrire un commentaire

Spelling error report

The following text will be sent to our editors: