Author/Artist: Pixies
Title: Where is My Mind
Transcribed by: Barret Strickland
Email: [email protected]

This is a great song from the movie Fight Club!

------------|-----------------------------------------------------------------
------------|-----------------------------------------------------------------
-1--6-------|-1--6------------------------------------------------------------
-2--6--6--7-|-2--6--6--7------------------------------------------------------
-2--4--6--7-|-2--4--6--7------------------------------------------------------
-0-----4--5-|-0-----4--5------------------------------------------------------
 0:03     Guitar 1 Clean     Play throughout song quietly                     

------------------------------------------------------------------------------
---9---9---9---9---9---9------------------------------------------------------
-9---9---9---9---8---8---9-9-8-9---------x5-----------------------------------
------------------------------------------------------------------------------
------------------------------------------------------------------------------
------------------------------------------------------------------------------
 0:15     Guitar 2 Distortion                                                 

------------|----------|------------------------------------------------------
------------|----------|------------------------------------------------------
-1--6-------|-1--------|--6--4------------------------------------------------
-2--6--6--7-|-2--6--7--|--6--4------------------------------------------------
-2--4--6--7-|-2--6--7--|--4--2------------------------------------------------
-0-----4--5-|-0--4--5--|------------------------------------------------------
 0:57                                                                         

------------------------------------------------------------------------------
---9---9---9---9---9---9------------------------------------------------------
-9---9---9---9---8---8---9-9-8-9---------x3-----------------------------------
------------------------------------------------------------------------------
------------------------------------------------------------------------------
------------------------------------------------------------------------------
 1:14                                                                         

------------|----------|------------------------------------------------------
------------|----------|------------------------------------------------------
-1--6-------|-1--------|--6--4------------------------------------------------
-2--6--6--7-|-2--6--7--|--6--4------------------------------------------------
-2--4--6--7-|-2--6--7--|--4--2------------------------------------------------
-0-----4--5-|-0--4--5--|------------------------------------------------------
 1:44                                                                         

----------------------------------------7-7-9-10-12-14-14-14-14---------------
-7--7--7---7-7-------------------7-9-10---------------------------------------
-9^-9^-9^------9-9-7-7----7-9-------------------------------------------------
----------------------------7-------------------------------------------------
------------------------------------------------------------------------------
------------------------------------------------------------------------------
 2:01   Solo  (Not sure if this is 100% correct)                              

------------------------------------------------------------------------------
---9---9---9---9---9---9------------------------------------------------------
-9---9---9---9---8---8---9-9-8-9---------x3-----------------------------------
------------------------------------------------------------------------------
------------------------------------------------------------------------------
------------------------------------------------------------------------------
 2:09                                                                         

------------|----------|------------------------------------------------------
------------|----------|------------------------------------------------------
-1--6-------|-1--------|--6--4------------------------------------------------
-2--6--6--7-|-2--6--7--|--6--4------------------------------------------------
-2--4--6--7-|-2--6--7--|--4--2------------------------------------------------
-0-----4--5-|-0--4--5--|------------------------------------------------------
 2:38                                                                         

------------------------------------------------------------------------------
---9---9---9---9---9---9------------------------------------------------------
-9---9---9---9---8---8---9-9-8-9---------x6-----------------------------------
------------------------------------------------------------------------------
------------------------------------------------------------------------------
------------------------------------------------------------------------------
 2:56                                                                         

------------------------------------------------------------------------------
---9---9---9---9---9----------------------------------------------------------
-9---9---9---9---8------------------------------------------------------------
------------------------------------------------------------------------------
------------------------------------------------------------------------------
------------------------------------------------------------------------------
 3:31   Last time                                                             

Articles liés :

Pin It on Pinterest

Spelling error report

The following text will be sent to our editors: