NAVAJO KNOW by the Pixies
==================================
from "Trompe Le Monde"(1991)

(drums)

   E--10p7p5---|
   B-----------|
   G-----------|
   D-----------|
   A-----------|
   E-----------|
                                    (2x)
   E------------------------------------|
   B------------------------------------|
   G------------------------------------|
   D------------------------------------|
   A--------3-------0-------5-----------|
   E--------------------------------0---|

     Upon   construction
   E--------------------------------------------------------|
   B-13-12-11-10--------------------------------------------|
   G-------------------------------------------12-11-10-9---|
   D------------------------10h12-13-12-10-12---------------|
   A--------------------------------------------------------|
   E--------------------------------------------------------|

[then...]

   E-----------------------|
   B-----------------------|
   G-----------------------|
   D-----------------------|
   A--3h5-6-5-3-5----------|
   E---------------3-2-1-0-|

Cm        Am     Dm Em  Cm         Am        Dm    Em
Upon construction       there is a mohawk
his way of walking      quite high above the ground
G                                 Cm Am Dm Em
Fearless of looking down, skywalk!

                (3x)
   E-----------------|---------------------|
   B-----------------|---------------------|
   G-----------------|---------------------|
   D-----------------|--------------2------|
   A--3--5--3--0--3--|--3--5--3--5-----3---|
   E-----------------|---------------------|

   
   E------------------------------------------------|
   B---------------------------------8--7--6--5-----|
   G--5h7-8-7-5-7--------------------------------7--|
   D------------------------------------------------|
   A------------------------------------------------|
   E------------------------------------------------|



Chords by JERE TAPIO KLAMI 
Tablature by Bryson Meunier 

Articles liés :

Pin It on Pinterest

Spelling error report

The following text will be sent to our editors: