"In Heaven" by The Pixies
==============================
tabbed by 



[Intro]


   "in heaven - everything is fine"

Bass:

g:|------------------------------|
d:|------------------------------|
a:|------5-----------------------|
e:|--------------------3-----6---|



[Bridge]


    "you've got your good thing - and i've got mine"


Bass:

g:|-----------------------------------------------------------|
d:|-----------------------------------------------------------|
a:|--------------------------------------------------1--------|
e:|--1----------3-----------4-------------------1----------1--|


Guitar:

                                                F    A#    F

[Refrain]


Bass:

g:|------------------------------|
d:|------------------------------|
a:|------5-----------------------|
e:|--------------------3-----6---|

Guitar:

        D              G     A

----

Articles liés :

Pin It on Pinterest

Spelling error report

The following text will be sent to our editors: