HEY by the Pixies
==================================
off of Doolittle
Transcribed by Mark Schnitzius ([email protected])

[Just bass]
|---------------------------------------------------------------|
|---------------------------------------------------------------|
|-------------------0----1---2-----2--2-3-4-5---5--5------------|
|-------2-------------------------------------------------------|
    hey   been trying to meet you


[Guitar starts]
|--------2---X----------2---------------------------------------|
|--------3---X-X--3-3-----3------[repeats]----------------------|
|--------2h4---X--2-2h4-----4-----------------------------------|
|---------------------------------------------------------------|
|---------------------------------------------------------------|
|---------------------------------------------------------------|
|                                                               |
|                                                               |
|                                                               |
|---------------------------------------------------------------|
|---------------------------------------------------------------|
|---------------------------------------------------------------|
|--0--2--3---------3---3---------0--1--2--2--2------------------|

hey
must be a devil between us
or whores in my head
whores at my door
whores in my bed
but hey
where
have you
been
if you go i will surely die

      G       Em   Bm  G  Em  Bm .....
we're chained

[Solo]
--------------------------------------------------------------
--------------------------------------------------------------
--7-------------6---------------------------------------------
----9-7-----------7-------------------------------------------
--------9-7h8h9-----9--7-7h8h9--7-5-----------7-5-------------
------------------------------------7-5-5h6h7-----7-5-5h6h7---
[repeats]

uh
said the man to the lady
uh
sad the lady to the man she adored
and the whores like a choir
go uh all night
and mary ain't you tired of this
uh
is
the
sound
that the mother makes when the baby breaks
we're chained

Articles liés :

Pin It on Pinterest

Spelling error report

The following text will be sent to our editors: