"GOUGE AWAY" by The Pixies
===================================
from "Doolittle" (1989)

Transcribed by Darren Hardy ([email protected])
and Bryson Meunier ([email protected])

For the chorus do this with heavy palm muting

--------------------------------
--------------------------------
--------------------------------
-----------------------14-14-14-
----11-11-11--14-14-14----------
--------------------------------

chorus: gouge away
        you can gouge away
        stay all day
        if you want to


            (let ring)
   E-----------------------------------------------|
   B-----------------------9b---------r(9)---9--h--|
   G-----------------------------------------------|
   D------10---------------------------------------|
   A--11-------------------------------------------|
   E-----------------------------------------------|


Basically, it's G# B E G# E G# using barre chords for the verses.

[chorus]

G#         B
missy aggravation
            E
some sacred questions
              G#
you stroke my locks
          E
some marijuana
           G#
if you got some

[chorus]

   E--7p6-------------------------------------|
   B-------7-6---/(5)-----/(4)-----/(2)---p0--|
   G------------------------------------------|
   D------------------------------------------|
   A------------------------------------------|
   E------------------------------------------|

sleeping on your belly          Same G# B E G# E G# stuff
you break my arms
you spoon my eyes
been rubbing a bad charm
with holy fingers

[chorus]

chained to the pillars          Same G# B E G# E G# stuff
a 3-day party
i break the walls
and kill us all
with holy fingers

[chorus]                        Use G# B E G# E G# stuff for last chorus


---

Articles liés :

Pin It on Pinterest

Spelling error report

The following text will be sent to our editors: