"Caribou" by the Pixies
====================================
CD   :  Come On Pilgrim

      [slide] C       [slide] E       [slide] C 
|---0---------0-----0---------0-----0---------0--------------------
|-5-5-\4-\2-0-1---5-5-\4-\2---0---5-5-\4-\2-0-1--------------------
|-------------0-------------0-1---------------0--------------------
|-------------2---------------2---------------2--------------------
|-------------3---------------2---------------3--------------------
|-------------3---------------0---------------3--------------------
|
| C  D  G  D  C           G           Cm          G     [hammer-on]
|-0--2--1--2--0-----------3-----------3-----------3----------------
|-1--3--0--3--1-----------3-----------4-----------3----------------
|-0--2--0--2--0-----------4-------5-5-5-----------4---3-/5-\3-/5---
|-2--0--0--0--2-------5-5-5-------5-5-5-------5-5-5---3-/5-\3-/5---
|-3-----2-----3-------5-5-5---3-3-3-3-3-------5-5-5---3--3--3--3---
|-------3---------3-3-3-3-3---------------3-3-3-3-3----------------
|
|lead based on "Gm octave" chord... 
|-------6-------------6--------------------------------------------
|---8-----8-------8-----8------------------------------------------
|-7---7-----7---7---7-----7----------------------------------------
|------------------------------------------------------------------
|------------------------------------------------------------------
|------------------------------------------------------------------



Verse Progression...   G Cm 

Chorus Progression...   G D# A# B C# 

I live cement
I hate this street
I bite lament
This human form
Where I was born
I now repent

Caribou  (3x)

Repent
Re-pe-ent

Give me white
Ground to run
And foregone
Lets me knife
Knife me lets
I will get
What I like

Caribou  (3x)

Repent
Rep-pent

---
From: [email protected]

Articles liés :

Pin It on Pinterest

Spelling error report

The following text will be sent to our editors: