'Ana' by the Pixies (off of Bossanova)
==============================================

Some chords you will need:

   Bbm  C#  F#  Ab  Bm  Bb  F
----1---4---2---4---2---1---1--
----2---6---2---4---3---3---1--
----3---6---3---5---4---3---2--
----3---6---4---6---5---3---3--
----1---4---4---6---2---1---3--
------------2---4-----------1--


Opening chords:  E E Bbm

Intro (solo played over chords appearing at top):

Bbm        A  C#              F#  A          Bbm     A
----------------------------------------------------------
----------------------------------------------------------
----------------10-11-10-8-10---------8-------------------
---11---11-11-----------------11---11----11--11s8-8--7----
----------------------------------------------------------
----------------------------------------------------------

 C#                F# A      C#	    Ab
------------------------------------
------------------------------------
-----10-11-10-8-10---------8--------
-------------------11---11---11-11--
------------------------------------
------------------------------------

 C#          Ab       A              Bbm E Bbm
------------------12--9-----------------------------------
----------------------------------------------------------
------8-9-11-8-s11------------8-9-11-10-------------------
---11----------------------11--------------11-------------
----------------------------------------------------------
----------------------------------------------------------

Bm          Bb
   She's my faith

D                     G
  I'm trusting in the sun

Bb           Bm
   Return to sea

Bb   D                G
I...  forgetting everyone

Bb       D
  Eleven heart

A C#   Ab    A    Bbm E Bbm
  Ride   away


Bbm          A
    She's my faith

C#                    F#
   I'm trusting every sound

A         Bbm
Return to sea

A   C#               F#
I... forgetting everyone

A        C#    Ab
  Eleven high

D     A    Bb    Bm F Bm
  Ride away


-----
From: [email protected] (Mark Schnitzius)

Articles liés :

Pin It on Pinterest

Spelling error report

The following text will be sent to our editors: