Here is another tab for your web page:


STAGES by ZZ Top
from their 1985 release "Afterburner"

Typed out by Martin Hermans. Any questions about playing this
song to                                                                                
E-|----------|------------|----------|------------|
B-|-6--5--6--|---5---3----|-6--5--6--|--5---3-----|
G-|-5--5--5--|----------5-|-5--5--5--|---------5--|
D-|-5--5--5--|------------|-5--5--5--|------------|
A-|-3--3--3--|------------|-3--3--3--|------------|
E-|----------|------------|----------|------------|
                                                                               
                                                   Its a                       
E-|----------|------------|---------------|--------------|
B-|-6--5--6--|---5---3----|---------------|--------------|
G-|-5--5--5--|----------5-|---------------|--------------|
D-|-5--5--5--|------------|---5--3-----5--|--------------|
A-|-3--3--3--|------------|---------5-----|--------------|
E-|----------|------------|---------------|--------------|
                                                                               
    fine time to fall in love with you                                      I  
E-|------------------|------------------|---------------|---------------------|
B-|---8--7-----------|--7----7----------|--8---7--------|--7-----7------------|
G-|---7--7-----------|--7----7----------|--7---7--------|--7-----7------------|
D-|---9--7-----------|--7----7----------|--9---7--------|--7-----7------------|
A-|------------------|------------------|---------------|---------------------|
E-|------------------|------------------|---------------|---------------------|
                                                                               
    aint got a single thing to do                                           It 
E-|------------------|------------------|---------------|---------------------|
B-|---8--7-----------|--7----7----------|--8---7--------|--7-----7------------|
G-|---7--7-----------|--7----7----------|--7---7--------|--7-----7------------|
D-|---9--7-----------|--7----7----------|--9---7--------|--7-----7------------|
A-|------------------|------------------|---------------|---------------------|
E-|------------------|------------------|---------------|---------------------|
                                                                               
    happened before I knew what was going on                                 I 
E-|------------------|------------------|---------------|---------------------|
B-|---8--7-----------|--7----7----------|--8---7--------|--7-----7------------|
G-|---7--7-----------|--7----7----------|--7---7--------|--7-----7------------|
D-|---9--7-----------|--7----7----------|--9---7--------|--7-----7------------|
A-|------------------|------------------|---------------|---------------------|
E-|------------------|------------------|---------------|---------------------|
                                                                               
    fell out and knew that I was gone                                          
E-|------------------|------------------|---------------|---------------------|
B-|---8--7-----------|--7----7-------7b8|-8b7-7---------|---------------------|
G-|---7--7-----------|--7----7----------|--------9--7---|-9----9--------------|
D-|---9--7-----------|--7----7----------|---------------|---------------------|
A-|------------------|------------------|---------------|---------------------|
E-|------------------|------------------|---------------|---------------------|
                                                                               
    Stages keep on changing Stages rearranging love                            
E-|----------|------------|----------|--------|-----------------|-------------|
B-|-6--5--6--|------------|-6--5--6--|--------|-----------------|-------------|
G-|-5--5--5--|------------|-5--5--5--|--------|-----------------|--3b--5------|
D-|-5--5--5--|------------|-5--5--5--|--------|-5-5-----3b---5--|--------5----|
A-|-3--3--3--|------------|-3--3--3--|--------|-----------------|-------------|
E-|----------|------------|----------|--------|-----------------|-------------|
                                                                               
                                                                               
E-|-----------------|--------------| Now go back and play the 2nd verse
B-|-----------------|--------------| the same way. Then go to the solo.
G-|-----------------|--3b--5-------|
D-|--5-----3b----5--|--------5-----|
A-|-----------------|--------------|
E-|-----------------|--------------|
                                                                       
Solo:        
                                                                               
E-|---------------|-----------------|--------------|---------------|
B-|---------------|-----------------|--------------|---------------|
G-|-9/11------9-7-|9-9b11------11b9-|7-9---7-------|---------------|
D-|---------------|-----------------|----9---9---7-|-9---9-----\11-|
A-|---------------|-----------------|--------------|---9-----------|
E-|---------------|-----------------|--------------|---------------|
                                                                               
                                                                               
E-|---------------|-----------------|------------------|----------------|
B-|---------------|-----------------|-------7----------|----------------|
G-|----7--7-7-----|-----5-6---------|-5b6-7-----5b-----|----------------|
D-|-7---------7-7-|-----5-6---7-7-7-|---------7----7---|7---5-5---------|
A-|---------------|--0------0-------|----------------7-|--7-----7\5-3---|
E-|---------------|-----------------|------------------|--------------5-|
                                                                               
                                                                               
E-|----------------|--------------|----------------|----------------|
B-|----------------|------8-------|----------------|-----8b---------|
G-|-----7b8--9---7-|----9---9-9---|-9---9---9--7---|-9------9-9--\6-|
D-|-----7b8----9---|------------9-|---9----------9-|---9------------|
A-|----------------|--------------|----------------|----------------|
E-|-0-0------------|--------------|----------------|----------------|
                                                                               
                                                                               
E-|------------------|------------------|------------------|------------------|
B-|------------------|------------------|------------------|------------------|
G-|-7-7--7-7-7-7-7-7-|---7-10-7-7-7-7-7-|-9-7-7-9-7-7-7----|-5---5-5------5-5-|
D-|-7-7--7-7-7-7-7-7-|---7-10-7-7-7-7-7-|-9-7-7-9-7-7-7----|-5---5-5-8b9--5-5-|
A-|------------------|------------------|------------------|------------------|
E-|------------------|------------------|---------------7b-|------------------|
                                                                               
                                                                               
E-|--------------------|-------------------|---------------|------------------|
B-|--------------------|-------------------|---------------|------------------|
G-|--------------------|-----3b--5---------|---------------|-----3-5-5b-3-----|
D-|-5--5-5--5--5-3---5-|------------5------|-5------3b---5-|-5------------5---|
A-|--------------------|---5---------------|----5----------|---5--------------|
E-|--------------------|-------------------|---------------|------------------|

Now play the 3rd verse like the first two and then skip to the coda, which is
not tabbed out here (for now, at least)