Here's what i believe is the intro to "Rhythmeen". At least this is the way i play it!
Don't forget to drop your tuning to Eb !

E||----------------------------------------------------------------------------------------------------
B||----------------------------------------------------------------------------------------------------
G||----------------------------------------------------------------------------------------------------
D||--------2-------------------------------2-----------------2--------------------------------------
A||--2--4---4---4---2---4---2---0-----2------4---------2-----4-------------------------------
E||-------------0-----------------------0----------4----0---------4-----0-------------------------


E||----------------------------------------------------------------------------------------------------
B||----------------------------------------------------------------------------------------------------
G||----------------------------------------------------------------------------------------------------
D||----------2----------------------------------------4BENT!----2--------4BENT!---2--------------
A||--2---4-----4-----4----2----4----2----0-----------------------4------------------4---------
E||-----------------0-----------------------------0--------------------------------------------------

Hope this'll do for you.
Blues
If you have any comments, please e-mail me at : herrie-blues@introweb.nl