From GUNGBG@aol.com Mon Nov  9 15:07:11 1998
As promised........
Charlie


Enjoy and Get it On
ZZ Top - Tejas

notes: tune high E down to D.

intro                        use slide
D--------------------|--------/12~
B--------------------|--------/12~
G---3-0--3-0-0-----0-|---3-0--/12~
D---3-0--3-0-0-0h3---|---3-0--/12~
A--------------------|------------
E-3------------------|-3----------

                         use slide
D--------------------|---/3-/3-/3-
B--------------------|---/3-/3-/3-
G---3-0--3-0-0-----0-|---/3-/3-/3-
D---3-0--3-0-0-0h3---|---/3-/3-/3-
A--------------------|------------
E-3------------------|-3----------

  G riff
D--------------------|
B--------------------|
G---3-0--3-0-0-----0-|
D---3-0--3-0-0-0h3---| x 4
A--------------------|
E-3------------------|

G riff
Oh I'm makin' my way back home
G riff
Least that's what I told her on the phone

C riff
D--------------------|
B--------------------|
G---8-5--8-5-5-----5-|
D---8-5--8-5-5-5h8---| x 2
A--------------------|
E-8------------------|
Been a while since I made her smile
G riff
And I know she gonna dig my style
D riff
D---------------------|
B---------------------|
G-10-7--10-7-7------7-|
D-10-7--10-7-7-7-10---|
A---------------------|
E---------------------|
Could you enjoy baby
D--------------------|
B--------------------|
G-10-7--10-10--0-3-3-|
D-10-7--10-10--0-3-3-|
A--------------------|
E--------------------|
Really enjoy gettin' it on

G riff x 2

Could I get some pie ala mode
When I come in off the road
Do she still have her fightin' gear
Just one look is gonna make it clear
If she would enjoy baby
Really enjoyed gettin' it on

  use slide
D-/12/12/12-----------|
B-/12/12/12-----------|
G-/12/12/12-0-3-0-----|
D-/12/12/12-------3-0-| x 4
A---------------------|
E---------------------|

D-3-3-3-------------|
B-3-3-3-------------|
G-3-3-3-3-5-3-5-3---|
D-3-3-3-----------5-| x 4
A-------------------|
E-------------------|

guitar solo - C  G  D  G riff

How does it feel holdin' me again
She's holdin' on like it gonna never end
Well I'm home thinkin' I should stay
While I'm here just let me hear you say
Say you enjoyed baby
Really enjoyed gettin' it on

 use slide
D-------10----|-----7---|-----3---|-----5---|
B----10----10-|---7---7-|---3---3-|---5---5-|
G-10----------|-7-------|-3-------|-5-------|
D-10----------|-7-------|-3-------|-5-------|
A-------------|---------|---------|---------|
E-------------|---------|---------|---------|
  G                      C
D----------------|     |-----------------|
B----------------|     |-----------------|
G----------------|     |-5--5--5--5--5-5-|
D-5--5--5--------| x 4 |-5--5--5--5--5-5-| x 2
A-5--5--5--------|     |-3--3--3--3--3-3-|
E-3--3--3-001122-|     |-----------------|

repeat and fade...