From GUNGBG@aol.com Mon Nov  9 15:08:10 1998
...and some more Tejas!
Charlie


Arrested for Driving While Blind
ZZ Top - Tejas

intro
E-----------------
B-----------------
G-----------------
D-5-3-------------
A-----5-4-3-1---3-
E-------------3---

G7

G7                                        Bb
When you're driving down the highway at night
G7                                    F7
And you're feelin' that wild turkey's bite
C7
Don't give Johnny Walker a ride
G7                                   Bb
Cause Jack Black is right by your side
D7                                       Em7  C7
You might get taken to the jailhouse and find
            G7
You've been arrested for driving while blind
E-------------
B-------------
G-------------
D---------0-3-
A-----0h2-----
E-3-3---------

Now just the other night with nothin' to do
We broke a case of proof 102
And started itchin' for that wonderful feel
Of rollin' in an automobile
You could say we was out of our mind
And let me tell you we were flyin' while blind

guitar solo - verse chords x 2

Then they had us up against the wall 
Hey it's only blood grain alcohol
And there ain't no cause for alarm
We ain't out to do nobody no harm
How could anyone be so unkind
To arrest a man for drivin' while blind

guitar solo - verse chords x 2

                          Db
E---------------------------
B---------------------------
G-10-9--8-7-6-5--4-3-2-1--6-
D--9-8--7-6-5-4--3-2-1-0--6-
A-10-9--8-7-6-5--4-3-2-1--4-
E---------------------------

D     D# D     Db D repeat and fade....