WAY BEYOND EMPTY
                      by ZAKK WYLDE
                   tabbed by Matt Stetler

   
Riff A
 D                    G
-3--2--0--2------------------------------------
-3--3--3--3------------------------------------
-2--2--2--2--------------0--------------------
-------------------------0---------------0-2---
----------------------2-------------0-2--------
---------------0--3----------3-----------------


INTRO: Riff A  2x's

w/ Riff A
If I could I surely ...

D                 A            G
If I couldn't drink ...
D                               A
Would you turn ...
G
Would you ...

CHORUS;
Or leave me,
D                  A                 G
Way beyond empty ....

w/ Riff A
If I couldn't be the ....

D                 A               G
If I couldn't  ...
Forever on ..
D                   A
Would I still ..
G
Or would I be ...

CHORUS

Riff B (sounds close enough to me)
----------------------------------
----------------------------------
----------------------------------
--4--6--3-----4--6--3--1--0--
--5--7--4-----5--7--4--2--0--
--0--0--0-----0--0--0--0------

w/ Riff B
Oh Oh Oh
Oh Oh Oh Oh Oh

Oh Oh Oh
Oh Oh Oh Oh Oh

Solo

Riff A 2x's

w/ Riff A 
Would you promise ....

D                 A               G
If I couldn't  ...
D                                 A
Would you keep your ...
G
Amongst all the ....

Oooo
Oooo

Free time a it fades out

Like usual, any questions, comments, and so forth  e-mail me at
M_Stet@webtv.net