Thin Lizzy - "Southbound"
=============================

From: [email protected] (Mr Stephen Peacock - PG)
Solo tabbed by [email protected]   


From the album "Live and Dangerous". The chord pattern goes as follows :

	1  &  2  &  3  &  4  &  5  &  6  &  7  &  8  &

	G#       A# C           A#       C  C#


	1  &  2  &  3  &  4  &  5  &  6  &  7  &  8  &

	G#       A# C           A#       C  C#    D#


The intro can be tabbed as follows :

e:---------------------------------------------9--8-------------------------
B:--------------------------8--8----8--9--11---------9----------------------
G:-----------8--8----8--10-------------------------------10--10--8----------
D:---10--11---------------------------------------------------------11--10--
A:--------------------------------------------------------------------------
E:--------------------------------------------------------------------------


Chorus:

	C  F  G#    A# D#    C  F  G#    A# D#


This is my humble contribution to the Thin Lizzy tabs. It's the solo
that starts at about two minutes into the song and lasts for about 30
seconds. Enjoy!



e:--------------------------------------------------------|
B:17b(19)-17-14-------------------------------------------|
G:--------------16b(18)16-14~----------14----16-14~-16-14~|
D:----------------------------16-14h16----16--------------|
A:--------------------------------------------------------|
E:--------------------------------------------------------|



e:------------14-17p14----14-16~-14----14h17p14----14---|
B:---------14----------17-----------17----------17----17|
G:-16b(18)----------------------------------------------|
D:------------------------------------------------------|
A:------------------------------------------------------|
E:------------------------------------------------------|



e:-----------------------------------------------------------------|
B:-12h13-12----12h13-----------------------------------------------|
G:----------14-------14-12-16b(18)16-14----------------------------|
D:--------------------------------------16-14-------------14-16-14~|
A:-----------------------------------------14-16-14-15-16----------|
E:-----------------------------------------------------------------|



e:-----------------------------------------------------------------------------|
B:-17-14----14-----------------------------------------------------------------|
G:-------16----16-14----16-14--------------------------------------------------|
D:-------------------16-------16-14----16p14----14\12----12\11----11\9----9\7--|
A:----------------------------------16-------16-------14-------12------11-----9|
E:-----------------------------------------------------------------------------|

                                                                        


e:-------------------------------------------------------------12-9-10-9|
B:---------------------------------------------10/12-10~-10-10----------|
G:-----------------9h11-9h11-------9/11-9~-9-9--------------------------|
D:-7-9p7-9-9/11-11-----------11-11--------------------------------------|
A:----------------------------------------------------------------------|
E:----------------------------------------------------------------------|

                                            


e:---------12--------------------------------|
B:-12b(14)----b(14)12p10----10-12p10----12p10|
G:-----------------------11----------11------|
D:-------------------------------------------|
A:-------------------------------------------|
E:-------------------------------------------|


-----

Articles liés :

Pin It on Pinterest

Spelling error report

The following text will be sent to our editors: