Dancin' in the Moonlight - Thin Lizzy
=======================================

From: [email protected] (Mr Stephen Peacock - PG)


Here is the tab for "Dancin' in the Moonlight" by Thin Lizzy, as performed 
live on their album "Live & Dangerous". The first (slower) part of the solo 
is transcribed, but was done so by memory and, as such, will most likely 
have errors.



  Main Riff (used in intro and elsewhere)

e:---------------------------------------|----------------------------------|
B:---------------------------------------|----------------------------------|
G:---------------------------------------|----------------------------------|
D:-------------1-----1---------------1---|----------------------------------|
A:-1--1--4--4---------------4--1--4------|---1--1--4--4--2--2-----1---------|
E:---------------------------------------|---------------------------4--2---|


The chord pattern is as follows :

	D#m   C#   B   F#    (repeat as necessary)

The chords are used throughout the song, with the riff thrown in at 
appropriate times.


This is the first part of the solo ...

e:---------------------------------------------------------|
B:---11--14b(16)-----b(16)14--11--14b(16)-----b(16)14--11--|
G:---------------------------------------------------------|
D:---------------------------------------------------------|
A:---------------------------------------------------------|
E:---------------------------------------------------------|



e:---------------------------------------------------------------------------|
B:-14b(16)--14--11-----------------------------------------------------------|
G:----------------------11--11-----13--11--13b(15)--13--11--13b(15)----------|
D:------------------13------------------------------------------------11--13-|
A:---------------------------------------------------------------------------|
E:---------------------------------------------------------------------------|

                                                          

e:---------------16-16--14-14--12-12--11-12--14-14--16-16~--|
B:----------------------------------------------------------|
G:-11-------------------------------------------------------|
D:-----13--11~----------------------------------------------|
A:----------------------------------------------------------|
E:----------------------------------------------------------|

Articles liés :

Pin It on Pinterest

Spelling error report

The following text will be sent to our editors: