"ONE HEAD LIGHT"
                                      by
				 the Wallflowers
				 as tabbed by JN

INTRO
x|------------------|---------|-------------|----------------------------------------------|
x|------------------|---------|-4bend-------|-5/4---4-5-8pulloff---9pulloff----------------|
x|-----2-4-------2-4|-4bend/3-|-------7-5-4-|-------------------------------8--------------|
x|------------------|---------|-------------|----------------------------------------------|
x|---2---------2----|---------|-------------|----------------------------------------------|
x|-0---------0------|---------|-------------|----------------------------------------------|

MIDDLE VERSE 1
x|-6--6bend~~-5pulloff-4bend~~-3-2bend~~-|
x|-4-------------------------------------|
x|---------------------------------------|
x|---------------------------------------|
x|---------------------------------------|
x|---------------------------------------|

END VERSE 1
x|-5/8-8-8-8-8-8-8-8-7-7-7-7-7-7-7-|
x|---------------------------------|
x|---------------------------------|
x|---------------------------------|
x|---------------------------------|
x|---------------------------------|

CHORUS
x|---------------------|
x|---------------------|
x|---------------------|
x|-8---7---6---6----10-|
x|-8---7---6---6----10-|
x|-6---5---4---4----8--|

SOLO - the solo is just a bunch of garbage. figure it out on your own.


Articles liés :

Pin It on Pinterest

Spelling error report

The following text will be sent to our editors: