TAB: "Up In Arms" by the Foo Fighters
Normal E Tuneing.

Verse:
1:-----------1--------------
2:--1-----2--0--------------
3:--0--4--2--0--------5-----
4:--2--4--2--0--3--6--5-----
5:--3--2--0--2--3--6--3-----
6:-----------3--1--4--------

Chorus:
1:--------------------------
2:--------------------------
3:-------5--2---------5-----
4:-3--6--5--2---3--6--5-----
5:-3--6--3--0---3--6--3-----
6:-1--4---------1--4--------

thats the slow part, play that like the cd. The fast part 
is all the same except faster! And here is the solo.

Solo:
1:-----------------------------------------------
2:-------------------------------8---------------
3:-9-7-5 5-5-5-7-5---5-7-9-9-9-9---9-5---5-7-9---
4:-----------------7-------------------7---------
5:-----------------------------------------------
6:-----------------------------------------------

Articles liés :

Pin It on Pinterest

Spelling error report

The following text will be sent to our editors: