Soul Asylum  -  The Cult        
                Transcription by Luis Ferreira


Chords used:

Am      002210  	Asus4   002230		F       133211
G       320033		D	x00232  	C       032010
A#	113331          Esus4   002200


- Bass 1 -

Play this 3 times:

e----------------|----------------|--
B----------------|----------------|--
G-------------0--|-------------0--|--
D--2----2--------|--3----3--------|--
A-----0----0-----|----0-----0-----|--
E----------------|----------------|--

Then play this once:

e----------------|----------------|--
B----------------|----------------|--
G-------------0--|----------------|--
D--2----2--------|--3-------------|--
A-----0----0-----|----3--0-----3--|--
E----------------|----------1-----|--



( Heartbeat )
( Strumming Guitar  Am )
( Bass 1 )
( Drums )
( Guitar lead )

Am  F  ( 4x )

Am         Asus4                    F      G
Who would break a butterfly on the wheel ?
    Am Asus4          F      G
Not me, my precious child
      Am		   Asus4               F     G
Sweet angel wrap me in your velvet clothes my dear
	 Am               Asus4        F     G
Love's a sweet one goddess I invited here


D	      C A#              C
So many times I  call your name
   D       C A#      C
Uh baby baby please
D	      C	A# C
So many times I call your name
D  C      A#
Uh   yeah


Asus4	    A	      F	     G
Before the night is through
Asus4     A	   F	G
Grant me one last wish
Asus4	A	  F   G
Sweet soul asylum
Asus4	A	F    G
An everlasting kiss

Who would crush this woman on the foot ?
Uh not me my chosen one  ( my chosen one )
Sweet angel wrap me in your velvet clothes my dear
Love's a sweet one goddess I invited here

So many times I call your name
Oh please baby yeah
So many times I call your name

Before the night is through
Grant me one last wish
Sweet soul asylum
An everlasting kiss

( Guitar solo )
( Bass 1 )

Bm   C
Bm7  C

So many times I call your name
Oh baby baby please
So many times I call your name

(Before the night is through)   Before the night is through
(Grant me one last wish)   Grant me one last wish
Sweet soul asylum
An everlasting kiss

Before the night is through
Grant me one last wish
Sweet soul asylum
An everlasting kiss

Asus4  A         F      G
Sweet soul asylum yeah
  Asus4    A        F      G
Oh sweet soul asylum yeah
Asus4  A F  G
Sweet soul yeah
Asus4  A         F   G       Esus4  Am
Sweet soul asylum      oh oh



-----------------------------------------------------------------------------
|       Luis Ferreira        |  csrc08@science.di.fc.ul.pt