From: keeler@bnr.ca (Tony Vaserfirer)

She Sells Sanctuary  -  The Cult  from the "Pure Cult" album

Standard Tuning tuned up a semitone.
Effects: Try a flanger or phaser, Chorus and Reverb sounds good too. 
Chords used:  D: x00232      Cadd9: 032030      G: 320033

{Intro} (w/ flanger on)
----------------------------------|------------------------------------
----------------------------------|---------------------------------15-
---14---12---11---(7)---5---7---2-|---14---12---16---14---12---14------
-0----0----0----0-----0---0---0---|-0----0----0----0----0----0----0----
----------------------------------|------------------------------------
----------------------------------|------------------------------------

{ Riff 1 }  Drums kick in.
--------------------------------------------------
--------------------------------------------------
-14-14-12-11-12-11--7--7--5--5--7--2-12-11--7--7-- 
--0--0--0--0--0--0--0--0--0--0--0--0--0--0--0--0-- 
--------------------------------------------------
--------------------------------------------------

Main Riff (used with main lyrics)
 D , , , , , , , , , , , ,  C , , , , , , , GG  G   This works too.
--------------------------|-----------------33--3-|  |-------|
--------------------------|-----------------33--3-|  |8-8-7--|
-7------------------------|-5---------------00--0-|  |7-7-7--|
-0------------------------|-0---------------00--0-|  |0-0-0--|
--------------------------|-----------------22--2-|  |-------|
--------------------------|-----------------33--3-|  |-------|
        D
Oh the heads that turn
 Cadd9             G
Make my back burn
           D
And those heads that turn
 Cadd9                  G
Make my back - make my back burn

{ Riff 3 }
  ,  ,  ,  ,  ,  ,  ,  ,  ,  ,  ,  ,  ,  ,  ,  ,  ,  ,  ,  ,  ,  ,  ,
--------------------------------------------------------------------------
--------------------------------------------------------------------------
-14----------------------16-14-------------12-----------12-12-11-12-11-7-7
--0-----------------------0--0--------------0------------0--0--0--0--0-0-0
--------------------------------------------------------------------------
--------------------------------------------------------------------------

The sparkle in your eyes
Keeps me alive
And the sparkle in your eyes
Keeps me alive - keeps me alive

And the world
And the world turns around
The world and the world yeah yeah
The world drags me down

{ Riff 1 }

Oh the heads that turn
Make my back burn
And those heads that turn
Make my back - make my back burn yeah yeah

{ Riff 3 }  Yeah yeah he-hey  Yeah yeah he-hey

The fire in your eyes
Keeps me alive
And the fire in your eyes
Keeps me alive

I'm sure in her you'll find
The sanctuary
I'm sure in her you'll find
The sanctuary

And the world
The world turns around  { 12-string  G }
And the world and the world
The world drags me down  { 12-string  G }

{Riff 1 }

And the world and the world and the world
The world turns around   { 12-string  G }
And the world and the world and the world and the world
The world drags me down  { 12-string  G }

{ Riff 1 }  Ah ah
{ Drums }

{ Riff 3 } Yeah yeah he-hey  Yeah yeah he-hey  { 12-string  G }

( Yeah yeah he-hey )  And the world
( Yeah yeah he-hey )  And the world turns around  { 12-string  G }
( Yeah yeah he-hey )  And the world and the world
( Yeah yeah he-hey )  Yeah the world drags me down  { 12-string  G }

( Yeah yeah he-hey )  And the world
( Yeah yeah he-hey )  Yeah the world turns around  { 12-string  G }
( Yeah yeah he-hey )  And the world and the world
( Yeah yeah he-hey )  The world drags me down  { 12-string  G }

{ Riff 1 }  Yeah yeah he-hey  { 2x }
{ Riff 1 }  Sanctuary         { 2x }


=-=-=-=-=-=-=-=-=-=-=-=-=-=-=-=-=-=-=-=-=-=-=-=-=-=-=-=-=-=-==-=-=-=-=-=-=
        PLEASE DO NOT REPLY TO HEADER! ITS NOT MY ADDRESS! 
                INSTEAD REPLY TO  --> mockud@rpi.edu    -- Darrell
                                                         
     " Some are confused, most are just irritated " -- David Letterman
=-=-=-=-=-=-=-=-=-=-=-=-=-=-=-=-=-=-=-=-=-=-=-=-=-=-=-=-=-=-==-=-=-=-=-=-=


She Sells Sanctuary
  the Cult, from _Love_

trascription by pat@jaameri.gsfc.nasa.gov (Patrick M. Ryan)

Notes:
	Most of the rhythm in this tune is just chugging along
on 2 or 3 strings.  The palm is muffling the strings at the
bridge for that percussive sound.  For the purposes of
this song, a comma (,) above the staff indicates one chug.
[ Note the use of precise musical terminology. ]
	The Cult's guitarist likes the "big guitar" sound.  He
plays this on some kind of big hollow-body, like a Howard Roberts
or a Gretsch.



intro (w/ flanger on)
----------------------------------|------------------------------------
----------------------------------|---------------------------------15-
---14---12---11---(7)---5---7---2-|---14---12---16---14---12---14------
-0----0----0----0-----0---0---0---|-0----0----0----0----0----0----0----
----------------------------------|------------------------------------
----------------------------------|------------------------------------

(drums kick in)
 riff [A]
--------------------------------------------------
--------------------------------------------------
-14-14-12-11-12-11--7--7--5--5--7--2-12-11--7--7-- o
--0--0--0--0--0--0--0--0--0--0--0--0--0--0--0--0-- o
--------------------------------------------------
--------------------------------------------------

verse
 , , , , , , , , , , , , ,  , , , , , , , , , , ,
--------------------------|------------------------|
--------------------------|-----------------8-8-7--|
-7------------------------|-5---------------7-7-7--|
-0------------------------|-0---------------0-0-0--|
--------------------------|------------------------|
--------------------------|------------------------|

break
  ,  ,  ,  ,  ,  ,  ,  ,  ,  ,  ,  ,  ,  ,  ,  ,  ,  ,  ,  ,  ,  ,  ,
----------------------------------------------------------------------
----------------------------------------------------------------------
-14----------------------16-14-------------12-------------12-12-11-12-
--0-----------------------0--0--------------0--------------0--0--0--0-
----------------------------------------------------------------------
----------------------------------------------------------------------

2nd half of verse same as 1st

chorus
                                (big strum)
D  , , , , , , ,  C , , , , , , G  G  G

                                (big strum)
D  , , , , , , ,  C , , , , , , G  G  G

riff [A]


break after 2nd chorus
 repeat info riff, then do D C C


----------------------------------------
----------------------------------------
-14-12-11-14-12-11-14-12-11-14-12-11----
--0--0--0--0--0--0--0--0--0--0--0--0----
----------------------------------------
----------------------------------------