From: rons@quads.uchicago.edu (Josh Ronsen)
Subject: TAB: Love Removal Machine


Love Removal Machine
by the Cult


intro:
  D			   C	   G
e---------------------------------------------------
B-7-7-8---7-7-8-8-7-7-8-8--5-5-6-6--3-3-3-------------
G-7-7-7---7-7-7-7-7-7-7-7--5-5-5-5--4-4-4-------------
D-7-7-7---7-7-7-7-7-7-7-7--5-5-5-5--5-5-5-------------
A-5-5-5---5-5-5-5-5-5-5-5--3-3-3-3--5-5-5-------------
E-----------------------------------3-3-3-------------

[repeat 4 times]

verse:

  There she was in the red room 'cause she was there: uh-huh!
  D		      C				G
e------------------------------------------------------
B-7-7-8---------------5-5-6-6------------------3-3--3--
G-7-7-7---------------5-5-5-5------------------4-4--4--
D-7-7-7---------------5-5-5-5------------------5-5--5--
A-5-5-5---------------3-3-3-3------------------5-5--5--
E----------------------------------------------3-3--3--

[repeat, then play intro twice]

chorus:
  Talkin bout Love... Love Removal Machine...
  D C D		      D C G
e-------------------------------------------
B-7-5-7---------------7-5-3-----------------
G-7-5-7---------------7-5-4-----------------
D-7-5-7-----0-3b(5)-0-7-5-5-----------------
A-5-3-5-0-3-----------5-3-5---5-5-5-5-5-----
E-------------------------3-0-3-0-3-0-3-----

[repeat 4 times]

[then repeat intro, verse, chorus with words, and then solo is over the
verse part, which jumps to F G, I think, and then chorus. hint: solo is mostly if not all Dminor pentatonic]

end: ("Look out here she comes...")

D C D C G C repeat mucho

As for the lyrics you are on your own. The first time I heard this
(years ago!) my best friend and I were sure that he was singing
"Saltshaker" in the chorus...