Edie, Ciao baby.
The Cult.
                Am(sus4)                G                       C
-----------------------------------|------------------------|-------------------
----------------1---4----1---0--1--|------------------0-----|----------------0--
------------3----------------------|------------------------|-------------0-----
---------3-------------------------|------------0-----------|----------2--------
A----0-----------------------------|--------2---------------|------3------------
E----------------------------------|----3-------------------|-------------------


Repeat through verse.

Chorus.
                D                               G               C
--------------------3----4---3-0-3-|------------------------|-------------------
----------------2------------------|------------------0-----|----------------0--
------------3----------------------|------------------------|-------------0-----
---------0-------------------------|------------0-----------|----------2--------
A----------------------------------|--------2---------------|------3------------
E----------------------------------|----3-------------------|-------------------


The chords are right , I dont know I've tabbed them correctly as I haven't
played my guitar for a few months due to injury, You get it easilly though.


Alex