Round Here (acoustic) - Counting Crows
===================================================
My buddy the Chad and I have a different way (from the other acoustic tab)
 of doing the acoustic (VH1 Storytellers) Round Here.

Its easy if have your fingers making C D Em and G, and pick this throughout
the verses, then strum for the chorus.   Just mess with/listen to it and 
youll get the idea.

	C

e------------------------------
B------------------------------
G------0---0------0------0--0--  
D------------------------------	    		
A---3----------3--------3--3---   	
E------------------------------

	D

e--------------------------------
B--------------------------------
G------2---2------2-------2--2}-- hit these last two real quick then go to 
the Em and from Em to G etc
D---0----------0---------0--0}---   and when you go through it once or 
twice you can throw this deal in
A--------------------------------     when you pick C.			
E--------------------------------

	Em

e-----------------------------------
B-----------------------------------
G-----------------------------------
D------2---2-------2--------2--2----
A---2-----------2----------2--2-----
E-----------------------------------

	G

e-----------------------------------
B-----------------------------------
G-----------------------------------
D-------0---0-------0---------0--0--
A-----------------------------------
E---3-----------3-----------3--3----


so yeah, go for it.  and remember, dont pump the keg 
unless it needs to be pumped because then you become 
the dude responsible for all the 
foamy beer--and nobody likes that dude.

---
rosalejo@mailbox.orst.edu