Hanginaround - Counting Crows
======================================

Chords: F C G progression all the way through

These are the (approximate) chord changes for the verses and chorus...listen
to the song, its quite easy...

Chords:
F: 133211
C: 032010
G: 320003 (or 320033)

[F] She sat [C] right down on the [G] sofa
She said where have you been
[F] Ive been [C] waiting for [G] you
[F] Cos last night [C] I had something [G] so good
These days get so lo[F]ng
And Ive got [C] nothing to [G] do

[G] Ive been hangin aro[F]und [C] this town on the [G] corner
Ive been bummin aro[F]und this old [C] town too [G] long
Ive been hangin aro[F]und this [C] town on the [G] corner
Ive been bummin aro[F]und this old [C] town for [G] way too long

Heres the main riff as I figure it...

e-----------------------------------------------
B-----------------------------------------------
G-----------------------------------------------
D----------------2--0------------0-----------
A------0--3--0---------3--2--3------0-------
E---3------------------------------------------

e---------------------------------------------------------
B--------------------------------------------------------
G--------------------------------------------------------
D---------------2--0--0-----0---2--0------0---------
A-----0--3--0------------3-------------3-------3------
E--3----------------------------------------------------




<----------- 2nd translation------------------------->

Hanging Around - Counting Crows
Transcribed by Don Ferlazzo (CountCrow4@aol.com)


INTRO CHORDS: F C G

|------------------------------------------------------------------------|
|------------------------------------------------------------------------|
|------------------------------------------------------------------------|
|----------------2--0--------------0---------------------2--0------------|
|-----0--3------------3-3--2--3--------------0--3------------------------|
|---1--------3--------------------------0--1---------3-------------------|

|------------------------------------------------------------------------|
|------------------------------------------------------------------------|
|------------------------------------------------------------------------|
|---0---0-1-0-------------------------------------2-0-------------0-2----|
|-----3---------3---5--3---------------0--3-------------3-3-2-3----------|
|---------------------------5--3----1----------3-------------------------|

|------------------------------------------------------------------------|
|------------------------------------------------------------------------|
|------------------------------------------------------------------------|
|-----------------2--0-----------------7-7-------------------------------|
|------0--3-------------5---3--5--7--------------------------------------|
|--1----------3----------------------------------------------------------|


VERSES: F C G


She sat right down on the sofa
She said "Where have you been? I've been waiting for you."
And last night I had something so good
These days get so long and I got nothing to do

CHORUS: F C G

I've been hanging around this town on a corner
I've been buming around this old town too long
I've been hanging around this town on a corner
I've been buming around this old town for way too long

We spend all day getting sober
Just hiding from daylight, watching TV
We just look a lot better in the blue light
You know I gotta get out, but I'm stuck so tight, weighed by the chains that
keep me

Hanging around this town on a corner
I've been buming around this old town too long
Hanging around this town  on a corner
I've been buming around this old town for way too long

GUITAR SOLO CHORDS: F C G

This girl listens while the band plays
She says "Where have you been? I been lying right here on the floor"
I got all this time to be waiting
For what is mine to be hated what I am after the light has faded

Hanging around this town on a corner
I been buming around his old town too long
I been hanging around this town on a corner
I been buming around this old town for way too, way
I been hanging around this town on a corner
I been buming around this old town for way too long
I been hanging around this town on a corner
I been buming around this old town for
way, way, way, way, way too long
way, way, way, way,  too long
way, way, way, way too long
way, way, way, way,  too long



<----------- 3rd translation------------------------->

1. hanginaround
tuned down 1/2 step


the intro, played twice through:

  G       D      A                G      D      A
e--------------------------------|--------------------------------|
b--------------------------------|--------------------------------|
g--------------------------------|--------------------------------|
D-----------0--4--2----0---------|--------0--4--2--2h4p2p0h2p0----|
A-----0h2-----------------4-5-7--|---0h2-----------------------0--|
E--3----------------------------2h3-------------------------------|


and the verse/chorus, which is G-D-A-A throughout the entire song.

G         D                 A
  She sat right down on the sofa I said, "Where have you been?

G           D             A  (Asus4)
  I've been waiting for you.

G                  D               A
  Cause last night I had something so good These days get so long

G         D           A
and I got nothing to do"


              G       D                A
I been hanginaround this town on the corner

                G              D        A
I been bummin' around this old town so long

              G       D                A
I been hanginaround this town on the corner
                G              D         A
I been bummin' around this old town for way too long


We spend all day getting sober
Just hiding from daylight
Watching TV
We just look a lot better in the blue light
Well, you know I gotta get out
But I'm stuck so tight
Weighed by the chains that keep me...

hanginaround this town on the corner
I been bummin' around this old town too long
I been hanginaround this town on the corner
I been bummin' around this old town for way too long

--here, play the intro riff a couple times--

And this girl listens to the band play
She says "where have you been?
I've been lyin right here on the floor"
Well, I got all this time
To be waiting for what is mine
To be hating what I am
After the light has faded

hanginaround this town on the corner
I been bummin' around this old town so long
I been hanginaround this town on the corner
I been bummin' around this old town for way, way,
way, way, way too long

---