Sublime
What I Got
Sublime
Tabbed By: Mark Ferris
-------------------------------------------------------------------------
This song is basically only two chords.
      D      G
e|--2---|--3----|
B|--3---|--3----|
G|--2---|--0----|
D|--0---|--0----|
A|------|--2----|
E|------|--3----|



D                G
Early in the morning,
Risin' to the street,
Light me up that cigarette 
and I strap shoes on my feet,
Got to find a reason, 
Reason things went wrong.
Got to find a reason 
why my money's all gone.

I got a dalmation, 
And I can still get high,
I can play the guitar like a,
mother f***in' riot.

Solo:
e|-----------------------------|-----------------|
B|-----------------------------|--7--5--3--3-----|
G|---------------10------------|--7--5--4--4-----|
D|-----10--12------12--10--12--|-----------------|
A|-12--------------------------|-----------------|
E|-----------------------------|-----------------|


e|------------10--------------------------------------------------------|
B|-------------------12--10--12^13--13--12--10--------------------------|
G|-10^11-----------------------------------------------12--10^11--------|
D|-----------------------------------------------------------------12---|
A|----------------------------------------------------------------------|
E|----------------------------------------------------------------------|

D               G
LIfe is too short 
So love the one you got
Cause you might get run over,
or you might get shot.

Never had to battle with no 
bulletproof vest, 
Never start static,
I just get it off my chest.

Take a small example, 
a tip from me...
Take all of your money,
Give it up to charity.

Lovin' is what I got, 
Its with in my reach,
and the sublime style's still
straight from Long Beach.

Come back to you, 
You're gonna get what you deserve.
Try'n test that, 
You're bound to get served.

Love's what I got,
Don't start a riot.
You'll feel it when
the dance get's hot - hot.


D              G        D         G
Love is What I got. I said remember that.

D               G        D         G
Love is What I got. I said remember that.


Why I don't cry, 
when my dog runs away.
I don't get angry, 
at the bills I have to pay.
Don't get angry,
when my mom smokes pot,
Hits the bottle, 
and goes back to the rock

f***in' and fighting,
It's all the same,
Livin' with Louie Dog's  
The only way to stay sane,

Let the lovin' 
Let the lovin come back to me.

D       G        D         G
Love is what I got, I said remember that.
Love is what I got, I said remember that.
Love is what I got, I said remember that.
Love is what I got, I said remember that.

Love is what I got, I said remember that.
Love is what I got, I said remember that.
Love is what I got, I said remember that.
Love is what I got, I got - I got - I got - I got.

Articles liés :

Pin It on Pinterest

Spelling error report

The following text will be sent to our editors: