Rivers of  Babylon       		[email protected]

Chords:  G, D and C


Intro

E-----------------------------------3--------------------------------3
B-----------------------------------3--------------------------------3
G-----------------------------------0--------------------------------0
D-----------------------------------0--------------------------------0
A-----------2---2------3----2-----2-------------2---2---3---2----2
E----3---3-------------------------3-----3---3---------------------3

E-----------------------------------3                   I                      3
B-----------------------------------2                HAVE                3
G-----------------------------------3                  NO                   0
D-----------------------------------0                       IDEA          0
A----2---2--------3----2----------0                                          2
E-----------------------------------0---------------------------------3

                                        -G-                                         -G-
BY THE RIVERS OF BABYLON,  WHERE WE SAT DOWN
                                -D-                                                      -G-
AND THERE WE WEPT,  WHEN WE REMEMBERED ZEON.
                                                 -G-                                            -G-               
OH WHEN THE WICKED    CARRY US AWAY IN CAPTIVITY
     -C-                                 -G-
REQUIRED FROM US A SONG
       -G-                                                   -G-                             -D-            -G-                
NOW HOW CAN WE SINGING OFF US A SONG IN A STRANGE LAND
                        -G-                           -D-                            -G-                                  -D-
SO LET THE WORDS OF OUR MOUTH, AND THE MEDITATIONS OF OUR HEART

 D  G      D    G

REPEAT THE VERSE AFTER THE  D  G   PART

Articles liés :

Pin It on Pinterest

Spelling error report

The following text will be sent to our editors: