Sublime - Caress me down

it is as follows
Intro
 E-----4/555--4/555-4/555, B------54--

E----------------------------
B---------7--------------9--
G---777-7-7----777-9---
D---777-7-7----777-9---
A---777-5-7----777-7---
E---555----5----555------
W/distortion

Then during verses

E-----------------------|
B-------77-----99----|
G--77-77-77-99----|    Ska style upstroke, slower than intro. Spacing is not correct in 
D--77-77-77-99----|     any of these but they are the chords and if you listen to the 
A--77-55-77-77----|     song you will figure it out.  I know a lot more, or at least where 
E--55-----55---------|     to get them, if you want them email me at robnthahood@hotmail.com.

Articles liés :

Rapport de faute d’orthographe

Le texte suivant sera envoyé à nos rédacteurs :