Sublime: Santeria
______________________________________________________
Intro:
e-----------0----0-----------------------------------------------------------------------|
b-----------0--------0------------------------------------------------------5-----1-/2--|
g-----4------------------4---------------5--------------------6----4h6--------1/2------|
d--2------------------------------------------6-------------6---------------------------|
a-----------------------------------6------------6-----4-------------------------------|
e----------------------------4----------------------------------------------------------|

Verse: (Each Chord x4)
e----7-----4----4----2------------|
b----9-----4----5----4------------|
g----9-----5----6----4------------|
d----------------------------------|
a---------------------------------|
e----------------------------------|

Chorus:
e--5---------7--------4-------2--------------------------------|
b-----5---------7--------5--------4-------4-5-----------------|
g---------6--------8--------------------------------6----------|
d---------------------------------------------------------6----|
a--------------------------------------------------------------|
e--------------------------------------------------------------|

Articles liés :

Pin It on Pinterest

Spelling error report

The following text will be sent to our editors: