Artist: Sublime 
          Album: Sublime 
          Song: Pawnshop 
          Transcribed by: Shawn Dooley(wazutiman.stupid.com) 
 
          **normal tuning ** 
 
          Verse 1 
 
 
          Riff 1 
          e|--------------------------------------------------------------- 
          B|--------------------------------------------------------------- 
          G|--------------------------------------------------------------- 
          D|-------5------------------------------------------------------- 
          A|--5h7----7~~~~------------------------------------------------- 
          E|--------------------------------------------------------------- 
                      ^ bend up and down w/ tremolo 
 
          Fill 1 
          e|--------------------------------------------------------------- 
          B|--------------------------------------------------------------- 
          G|----------------7---------------------------------------------- 
          D|--9--7\5--7--9------------------------------------------------- 
          A|--------------------------------------------------------------- 
          E|--------------------------------------------------------------- 
 
          Riff 2 
          e|--------------------------------------------------------------- 
          B|--------------------------------------------------------------- 
          G|--------------------7------------------------------------------ 
          D|--9--7\5-----5h7/9-----9p7--9---------------------------------- 
          A|----------7---------------------------------------------------- 
          E|--------------------------------------------------------------- 
 
          Riff 3 
          e|--------------------------------------------------------------- 
          B|--------8--------------8--------------------------------------- 
          G|--7--9-----9--------7-----9-9--7-----------7------------------- 
          D|-----------------9----------------9--7--9---------------------- 
          A|--------------------------------------------------------------- 
          E|--------------------------------------------------------------- 
 
          e|---------------------------------10---------------------------- 
          B|--------8-------12-10\8-10-10/12------------------------------- 
          G|--7--9-----9--------------------------------------------------- 
          D|--------------------------------------------------------------- 
          A|--------------------------------------------------------------- 
          E|--------------------------------------------------------------- 
 
          e|-------------------10----------10-12-15-12~~------------------- 
          B|-12-10/8---8h10/12----12-10-12--------------------------------- 
          G|---------9----------------------------------------------------- 
          D|--------------------------------------------------------------- 
          A|--------------------------------------------------------------- 
          E|--------------------------------------------------------------- 
 
          e|-10-10-12-15-12-12-10------------------------------------------ 
          B|----------------------12-10-12-8-10---8------------------------ 
          G|------------------------------------9---7-9-------------------- 
          D|--------------------------------------------7-9---------------- 
          A|--------------------------------------------------------------- 
          E|--------------------------------------------------------------- 
 
          Riff 4 
          e|--------------------------------------------------------------- 
          B|--------------------------------------------------------------- 
          G|--------------------------------------------------------------- 
          D|-------5-5-------5-5------------------------------------------- 
          A|--5h7-------5h7-------7p5-----5-------------------------------- 
          E|---------------------------7----------------------------------- 
 
 
          Song structure: 
          ------------------- 
 
          Riff 1 x4 
          Fill 1 
          Riff 2 x4 
          Riff 3 
          Riff 4 x4 
 
          second guitar plays Em Em Bm Bm throughout verses.  ska style upstrokes 
 
          Riff 1 x2 
          Fill 1 
          Riff 2 x4 
          Riff 3 
          Riff 4 x4 
 
          verse 2 
 
          Riff 1 x2 
          Fill 1 
          Riff 2 x4 
          Riff 3 (mostly a little bit of improv near the end) 
          Riff 4 x4 
 
          another verse 
 
          Riff 4 x3

Articles liés :

Pin It on Pinterest

Spelling error report

The following text will be sent to our editors: