Date: Sun, 22 Jul 2001 21:51:14 -0400
From: philip wheeler 
Subject: s/scorpions/when_you_came_into_my_life.tab

Band: Scorpions
Album: Pure Instinct
Song: When You Came Into My Life
Tabbed By: Philip Wheeler 

I tabbed this song for my girlfriend so this one
is all for you Natasha.
Oh yeah and this is all my own work!

Standard Tuning

intro (0:00)
E--------------------------3---------------------------
B-----0---1---0--------3-1---1-3---1-----0-1-0------1--
G----2--2---2-----2---0----------0------2------2-0--2--
D---2-----------2----2-----------------0------------3--
A--0----------------3-----------------2-------------3--
E------------------------------------3-----------------

verse (0:15)
---------0----------------3------------------------
-----0-------0--------3-1---1-3---1-----0-1-0------
----2--2---2-----2---0----------0------2------2-0--
---2-----------2----2-----------------0------------
--0----------------3-----------------2-------------
------------------------------------3--------------

-----------------
--------1--------
----2------2-----
---3--2---3----3-
--3----------3---
-1---------------

chorus (1:17)
------------------
------------------
--10--7--10--9----
--10--7--10--9----
---8--5---8--7----
------------------

bridge (1:32)             2x
----------------------------
-----0----0---0------0----1-
----2--2---2---2----2--2----
---2----2---2---2--2----2---
--0---------------0---------
----------------------------

verse again
chorus

solo (3:00)
rhythm guitar plays verse riff
-------------------------------
------------8------------------
----4-5-7br---5------4-4h5-4---
--7----------------7-----------
-----------------7-----------7-
-------------------------------

-------------------------------
-------------8--/8-6-5-6-5---5-
--5/7--5-4-5---------------7---
-------------------------------
-------------------------------
-------------------------------

---------------
---------------
--7-5-7-5-4----
------------7--
---------------
---------------

before chorus starts fill this:
--------------------
--8-8-8-6-5-6-5---5-
----------------7---
--------------------
--------------------
--------------------


chorus a few times and then fade out