Rush: Witch Hunt
From the album Moving Pictures (Mercury Records)
Copyright 1981 Core Music Publishing
Music by Lee and Lifeson
Lyrics by Peart

Comments/corrections to C. D. Bruce 

Transcribed by Dave Toussaint 

E-----------------------------------------------------------------------
B-----------------------------------------------------------------------
G---------------------------------------0-------------------------------
D-----------------------------------------------------------------------
A---------------------------------------------------4-------------------
E------------------------3----------------------------------------------

E---|--------------------------------------------|----------------------
B---|--------------------------------------------|----------------------
G---|--------------------------------------------|----------------------
D---|--------------------------------------------|----------------------
A---|-----5--------------------------------------|----------------------
E---|--------------------------5-----------------|-----6----------------

E------------------------|----------------------------------------------
B------------------------|----------------------------------------------
G------------------------|-----------------0----------------------------
D------------------------|----------------------------------------------
A------------------------|-----------------------------4----------------
E------2-----------------|--3-------------------------------------------

E------|--------------------------------------------|-------------------
B------|--------------------------------------------|-------------------
G------|--------------------------------------------|-------------------
D------|--------------------------------------------|-------------------
A------|-----5--------------------------------------|-------------------
E------|--------------------------5-----------------|-----6-------------

E---------------------------------||--------||--------------------------
B---------------------------------||--------||--------------------------
G---------------------------------||--------||*-----------------0-------
D---------------------------------||--------||*-------------------------
A---------------------------------||--------||--------------------------
E---------2-----------------------||--------||---3----------------------

E---------------------------------|-------------------------------------
B---------------------------------|-------------------------------------
G---------------------------------|-------------------------------------
D---------------------------------|-------------------------------------
A------------4--------------------|-----5-----------------5-------------
E---------------------------------|-------------------------------------

E---------------------------|-------------------------------------------
B---------------------------|-------------------------------------------
G---------------------------|-------------------------------------------
D---------------------------|-------------------------------------------
A---------------------------|-------------------------------------------
E---------3-----------------|-----6-----------------------2-------------

E------------------|----------------------------------------------------
B------------------|----------------------------------------------------
G------------------|-----------------------0----------------------------
D------------------|----------------------------------------------------
A------------------|--------------------------------------4-------------
E------------------|-----3-----------------3----------------------------

E------------------|-----------------------------------------------|----
B------------------|-----------------------------------------------|----
G------------------|-----------------------------------------------|----
D------------------|-----------------------------------------------|----
A------------------|-----5-----------------------------------------|----
E------------------|--------------------------5--------------------|----

E---------------------------------------------------------------|-------
B---------------------------------------------------------------|-------
G---------------------------------------------------------------|-------
D---------------------------------------------------------------|-------
A---------------------------------------------------------------|-------
E---------------------6--------------------2--------------------|-------

E---------------------------------------------------------------|-------
B---------------------------------------------------------------|-------
G------------------0--------------------------------------------|-------
D---------------------------------------------------------------|-------
A---------------------------------4-----------------------------|--3----
E---3-----------------------------------------------------------|-------

E------------------------------------------------------------|----------
B------------------------------------------------------------|----------
G------------------------------------------------------------|----------
D------------------------------------------------------------|----------
A------------------5-----------------------------------------|----------
E------------------------------------5-----------------------|----------

E------------------------------------------------------|----------------
B------------------------------------------------------|----------------
G------------------------------------------------------|----------------
D------------------------------------------------------|----------------
A------------------------------------------------------|----------------
E---6-----------------------2--------------------------|--3-------------

E------------------------------------------|----------------------------
B------------------------------------------|----------------------------
G------0-----------------------------------|----------------------------
D------------------------------------------|----------------------------
A---------------------4--------------------|--------------5-------------
E------------------------------------------|----------------------------

E---------------------------------|-------------------------------------
B---------------------------------|-------------------------------------
G---------------------------------|-------------------------------------
D---------------------------------|-------------------------------------
A---------------------------------|-------------------------------------
E------------5--------------------|--6--------------6--------------2----

E-------------------------||--------------------------------------------
B-------------------------||--------------------------------------------
G------------------------*||-----------------0--------------------------
D------------------------*||--------------------------------------------
A-------------------------||--------------------------------4-----------
E-------------------------||--3-----------------------------------------

E------------------|----------------------------------------------------
B------------------|----------------------------------------------------
G------------------|----------------------------------------------------
D------------------|----------------------------------------------------
A------------------|-----5----------------------------------------------
E------------------|--------------------------5-------------------------

E---|-------------------------------------------------------------------
B---|-------------------------------------------------------------------
G---|-------------------------------------------------------------------
D---|-------------------------------------------------------------------
A---|-------------------------------------------------------------------
E---|-----6--------------6--------------2-------------------------------

E------||---------------------------------------------------------------
B------||---------------------------------------------------------------
G------||--------------------------------------3------------------------
D---5--||-----------3--------5--------3--------3------------------------
A---5--||-----------3--------5--------3---------------------------------
E---3--||-----------3---------------------------------------------------

E------------------------------|----------------------------------------
B------------------------------|----------------------------------------
G------------------------------|-----------------------------3----------
D---5-----------------5--------|--------3-----5-----3--------3----------
A---5-----------------5--------|--------3-----5-----3-------------------
E---3-----------------3--------|--------3-------------------------------

E---------------------------------------|-------------------------------
B---------------------------------------|-------------------------------
G---------------------------------------|-------------------------------
D------------5-----------------5--------|--------3--------5-----3-------
A------------5-----------------5--------|--------3--------5-----3-------
E------------3-----------------3--------|--------3----------------------

E------3-----------------------------------------------|----------------
B------3-----------------------------------------------|----------------
G------3-----------------------------------------------|----------------
D------3--------------------5-----------------5--------|-----------3----
A---------------------------5-----------------5--------|-----------3----
E---------------------------3-----------------3--------|-----------3----

E------------------------------------------|-----------------------3----
B------------------------------------------|-----------------------3----
G------------3-----------------------------|-----------------------3----
D------5--3--3--------------5--------5-----|-----5-----5-----3-----3----
A------5--3-----------------5--------5-----|-----5-----5-----3----------
E---------------------------3--------3-----|-----3----------------------

E------------------------------|--------------------------------|-------
B------------------------------|--------------------------------|-------
G------------------------------|-----------------------7--------|-------
D------------5-----------5-----|--------------5--------7--------|-------
A------------5-----------5-----|--------------5--------5--------|-------
E------------3-----------3-----|--------------3-----------------|-------

E---------------2-------------------------------------------------------
B---------------2-------------------------------------------------------
G---------------4-----2-----4-----2-----------------------4-------------
D---------------4-----2-----4-----2-----------------------4-------------
A---------------2-------------------------------------------------------
E-----------------------------------------------------------------------

E---------------------|--------------2----------------------------------
B---------------------|--------------2----------------------------------
G------------------4--|--------------4--------2--------4----------------
D------------------4--|--------------4--------2--------4----------------
A------------------2--|--------------2----------------------------------
E---------------------|-------------------------------------------------

E------------------|----------------------------------------------------
B------------------|----------------------------------------------------
G------------------|----------------------------------------------------
D------------------|-----------3--3--3--3--------------3-----------5----
A------------------|-----------3--3--3--3--------------3-----------5----
E------------------|-----------1--1--1--1--------------1-----------3----

E------|--------------3-----------------------------------------|-------
B------|--------------3-----------------------------------------|-------
G------|--------------3-----------------------------------------|-------
D------|-----3--5--3--3-----------------5-----------5-----------|-------
A------|-----3--5--3--------------------5-----------5-----------|-------
E------|-----3--------------------------3-----------3-----------|-------

E------------3-----------------------------------|----------------------
B------------3-----------------------------------|----------------------
G------------3-----------------------------------|----------------------
D---3--5--3--3-----------------5-----------5-----|-----------3-----5----
A---3--5--3--------------------5-----------5-----|-----------3-----5----
E---3--------------------------3-----------3-----|-----------3----------

E------------3--------------------------------------------------|-------
B------------3--------------------------------------------------|-------
G------------3--------------------------------------------------|-------
D------3-----3--------------------5--------------------5--------|-------
A------3--------------------------5--------------------5--------|-------
E---------------------------------3--------------------3--------|-------

E------------------------------------|-----------------2----------------
B------------------------------------|-----------------2----------------
G------------------------7-----------|-----------------4--------2-------
D------------5-----------7-----------|-----------------4--------2-------
A------------5-----------5-----------|-----------------2----------------
E------------3-----------------------|----------------------------------

E------------------------------------------------------|----------------
B------------------------------------------------------|----------------
G---4-----2--------------------4--------------------4--|----------------
D---4-----2--------------------4--------------------4--|----------------
A---------------------------------------------------2--|----------------
E------------------------------------------------------|----------------

E---------2-----------------------|-------------------------------------
B---------2-----------------------|-------------------------------------
G---------4--2--4-----------------|-------------------------------------
D---------4--2--4-----------------|--------------3-----3-----3-----3----
A---------2-----------------------|--------------3-----3-----3-----3----
E---------------------------------|--------------1-----1-----1-----1----

E------------------------------------------------3-----|----------------
B------------------------------------------------3-----|----------------
G------------------------------------------------3-----|----------------
D------------------------3-----------------------5-----|----------------
A------------------------3-----------------------------|----------------
E------------------------1-----------------------------|----------------

E------3--------------------------6--------|-----------------6----------
B------3--------------------------6--------|-----------------6----------
G------3--------------------------7--------|-----------------7----------
D------5--------------------------8--------|-----------------8----------
A------------------------------------------|----------------------------
E------------------------------------------|----------------------------

E---------------------------------|-----------------------10------------
B---------------------------------|-----------------------10------------
G---------------------------------|-----------------------10------------
D---------------------------------|-----------------------12------------
A---------------------------------|-------------------------------------
E---------------------------------|-------------------------------------

E---10--------------------------------------8---------|-----------------
B---10--------------------------------------8---------|-----------------
G---10--------------------------------------9---------|-----------------
D---12--------------------------------------10--------|-----------------
A-----------------------------------------------------|-----------------
E-----------------------------------------------------|-----------------

E------8------------------------------------------|---------------------
B------8------------------------------------------|---------------------
G------9------------------------------------------|---------------------
D------10-----------------------------------------|---------------------
A-------------------------------------------------|---------------------
E-------------------------------------------------|---------------------

E---------------------------3-----3-------------------------------------
B---------------------------3-----3-------------------------------------
G---------------------------3-----3-------------------------------------
D---------------------------5-----5-------------------------------------
A-----------------------------------------------------------------------
E-----------------------------------------------------------------------

E------6-----------|--------6-------------------------------------------
B------6-----------|--------6-------------------------------------------
G------7-----------|--------7-------------------------------------------
D------8-----------|--------8-------------------------------------------
A------------------|----------------------------------------------------
E------------------|----------------------------------------------------

E---|-----------------------------10--------10--------------------------
B---|-----------------------------10--------10--------------------------
G---|-----------------------------10--------10--------------------------
D---|-----------------------------12--------12--------------------------
A---|-------------------------------------------------------------------
E---|-------------------------------------------------------------------

E------------------8------------|--------------8------------------------
B------------------8------------|--------------8------------------------
G------------------9------------|--------------9------------------------
D------------------10-----------|--------------10-----------------------
A-------------------------------|---------------------------------------
E-------------------------------|---------------------------------------

E---------------------|-----------------------------3-----3-------------
B---------------------|-----------------------------3-----3-------------
G---------------------|-----------------------------3-----3-------------
D---------------------|-----------------------------5-----5-------------
A---------------------|-------------------------------------------------
E---------------------|-------------------------------------------------

E------------------------------6-----------|--------6-------------------
B------------------------------6-----------|--------6-------------------
G------------------------------7-----------|--------7-------------------
D------------------------------8-----------|--------8-------------------
A------------------------------------------|----------------------------
E------------------------------------------|----------------------------

E------------------------------------------------------|----------------
B------------------------------------------------------|----------------
G------------------------------------------------------|----------------
D------------------------------------------------------|----------------
A------------------------------------------------------|----------------
E------------------------------------------------------|----------------

E------------------------10-----10--------------------------------8-----
B------------------------10-----10--------------------------------8-----
G------------------------10-----10--------------------------------9-----
D------------------------12-----12--------------------------------10----
A-----------------------------------------------------------------------
E-----------------------------------------------------------------------

E------|--------------8-------------------------------------------------
B------|--------------8-------------------------------------------------
G------|--------------9-------------------------------------------------
D------|--------------10------------------------------------------------
A------|----------------------------------------------------------------
E------|----------------------------------------------------------------

E------------------------------------------------------------------|----
B------------------------------------------------------------------|----
G------------------------------------------------------------------|----
D------------------------------------------------------------------|----
A------------------------------------------------------------------|----
E------------------------------------------------------------------|----

E---------------------------------------3-----3-------------------------
B---------------------------------------3-----3-------------------------
G---------------------------------------3-----3-------------------------
D---------------------------------------5-----5-------------------------
A-----------------------------------------------------------------------
E-----------------------------------------------------------------------

E------------------6-----------|-----6----------------------------------
B------------------6-----------|-----6----------------------------------
G------------------7-----------|-----7----------------------------------
D------------------8-----------|-----8----------------------------------
A------------------------------|----------------------------------------
E------------------------------|----------------------------------------

E-----------------------------------------------------------------------
B-----------------------------------------------------------------------
G-----------------------------------------------------------------------
D-----------------------------------------------------------------------
A-----------------------------------------------------------------------
E-----------------------------------------------------------------------

E---|-----------------------------------------------------10------------
B---|-----------------------------------------------------10------------
G---|-----------------------------------------------------10------------
D---|-----------------------------------------------------12------------
A---|-------------------------------------------------------------------
E---|-------------------------------------------------------------------

E---10-----------------------------8---------|-----8--------------------
B---10-----------------------------8---------|-----8--------------------
G---10-----------------------------9---------|-----9--------------------
D---12-----------------------------10--------|-----10-------------------
A--------------------------------------------|--------------------------
E--------------------------------------------|--------------------------

E-----------------------------------------------------------------------
B-----------------------------------------------------------------------
G-----------------------------------------------------------------------
D-----------------------------------------------------------------------
A-----------------------------------------------------------------------
E-----------------------------------------------------------------------

E------------------------|----------------------------------------------
B------------------------|----------------------------------------------
G------------------------|----------------------------------------------
D------------------------|----------------------------------------------
A------------------------|----------------------------------------------
E------------------------|----------------------------------------------

E---3-----3--------------------------------------6-----|----------------
B---3-----3--------------------------------------6-----|----------------
G---3-----3--------------------------------------7-----|----------------
D---5-----5--------------------------------------8-----|----------------
A------------------------------------------------------|----------------
E------------------------------------------------------|----------------

E------6----------------------------------------------------------------
B------6----------------------------------------------------------------
G------7----------------------------------------------------------------
D------8----------------------------------------------------------------
A-----------------------------------------------------------------------
E-----------------------------------------------------------------------

E---------------------------------------------|-------------------------
B---------------------------------------------|-------------------------
G---------------------------------------------|-------------------------
D---------------------------------------------|-------------------------
A---------------------------------------------|-------------------------
E---------------------------------------------|-------------------------

E------------------------------------------10--------10-----------------
B------------------------------------------10--------10-----------------
G------------------------------------------10--------10-----------------
D------------------------------------------12--------12-----------------
A-----------------------------------------------------------------------
E-----------------------------------------------------------------------

E---------------------8------------|-----8------------------------------
B---------------------8------------|-----8------------------------------
G---------------------9------------|-----9------------------------------
D---------------------10-----------|-----10-----------------------------
A----------------------------------|------------------------------------
E----------------------------------|------------------------------------

E---------------------------------------------------|-------------------
B---------------------------------------------------|-------------------
G---------------------------------------------------|-------------------
D---------------------------------------------------|-------------------
A---------------------------------------------------|-------------------
E---------------------------------------------------|-------------------

E---------------------------------------3-----3-------------------------
B---------------------------------------3-----3-------------------------
G---------------------------------------3-----3-------------------------
D---------------------------------------5-----5-------------------------
A-----------------------------------------------------------------------
E-----------------------------------------------------------------------

E------------6--------|--------6----------------------------------------
B------------6--------|--------6----------------------------------------
G------------7--------|--------7----------------------------------------
D------------8--------|--------8----------------------------------------
A---------------------|-------------------------------------------------
E---------------------|-------------------------------------------------

E---------------------------------------|-------------------------------
B---------------------------------------|-------------------------------
G---------------------------------------|-------------------------------
D---------------------------------------|-------------------------------
A---------------------------------------|-------------------------------
E---------------------------------------|-------------------------------

E---10--------10-----------------------------8---------|-----8----------
B---10--------10-----------------------------8---------|-----8----------
G---10--------10-----------------------------9---------|-----9----------
D---12--------12-----------------------------10--------|-----10---------
A------------------------------------------------------|----------------
E------------------------------------------------------|----------------

E---------------------------|-------------------------------------------
B---------------------------|-------------------------------------------
G---------------------------|-------------------------------------------
D---------------------------|-------------------------------------------
A---------------------------|-------------------------------------------
E---------------------------|-------------------------------------------

E---------------3-----3--------------------------------6--------|-------
B---------------3-----3--------------------------------6--------|-------
G---------------3-----3--------------------------------7--------|-------
D---------------5-----5--------------------------------8--------|-------
A---------------------------------------------------------------|-------
E---------------------------------------------------------------|-------

E------6----------------------------------------------------------------
B------6----------------------------------------------------------------
G------7----------------------------------------------------------------
D------8----------------------------------------------------------------
A-----------------------------------------------------------------------
E-----------------------------------------------------------------------

E---------------|-----------------------------10--------10--------------
B---------------|-----------------------------10--------10--------------
G---------------|-----------------------------10--------10--------------
D---------------|-----------------------------12--------12--------------
A---------------|-------------------------------------------------------
E---------------|-------------------------------------------------------

E---------------------8---------|-----8---------------------------------
B---------------------8---------|-----8---------------------------------
G---------------------9---------|-----9---------------------------------
D---------------------10--------|-----10--------------------------------
A-------------------------------|---------------------------------------
E-------------------------------|---------------------------------------

E---|-----------------------------------------------------3-----3-------
B---|-----------------------------------------------------3-----3-------
G---|-----------------------------------------------------3-----3-------
D---|-----------------------------------------------------5-----5-------
A---|-------------------------------------------------------------------
E---|-------------------------------------------------------------------

E------------------------------6--------|--------6----------------------
B------------------------------6--------|--------6----------------------
G------------------------------7--------|--------7----------------------
D------------------------------8--------|--------8----------------------
A---------------------------------------|-------------------------------
E---------------------------------------|-------------------------------

E---------------------------------------------------------|-------------
B---------------------------------------------------------|-------------
G---------------------------------------------------------|-------------
D---------------------------------------------------------|-------------
A---------------------------------------------------------|-------------
E---------------------------------------------------------|-------------

E---------------------10--------10-----------------------------8--------
B---------------------10--------10-----------------------------8--------
G---------------------10--------10-----------------------------9--------
D---------------------12--------12-----------------------------10-------
A-----------------------------------------------------------------------
E-----------------------------------------------------------------------

E------|-----8------------------------------|---------------------------
B------|-----8------------------------------|---------------------------
G------|-----9------------------------------|---------------------------
D------|-----10-----------------------------|---------------------------
A------|------------------------------------|---------------------------
E------|------------------------------------|---------------------------

E---------------------------1--1--------------------------3-----|-------
B---------------------------1--1--------------------------3-----|-------
G---------------------------2--2--------------------------3-----|-------
D---------------------------3--3--------------------------5-----|-------
A---------------------------------------------------------------|-------
E---------------------------------------------------------------|-------

E---3-------------------------------------------------------------------
B---3-------------------------------------------------------------------
G---3-------------------------------------------------------------------
D---5-------------------------------------------------------------------
A-----------------------------------------------------------------------
E-----------------------------------------------------------------------

E------------------------|-----------------------------10--------10-----
B------------------------|-----------------------------10--------10-----
G------------------------|-----------------------------10--------10-----
D------------------------|-----------------------------12--------12-----
A------------------------|----------------------------------------------
E------------------------|----------------------------------------------

E------------------------------8------------|-----8---------------------
B------------------------------8------------|-----8---------------------
G------------------------------9------------|-----9---------------------
D------------------------------10-----------|-----10--------------------
A-------------------------------------------|---------------------------
E-------------------------------------------|---------------------------

E---------------------|-------------------------------------------------
B---------------------|-------------------------------------------------
G---------------------|-------------------------------------------------
D---------------------|-------------------------------------------------
A---------------------|-------------------------------------------------
E---------------------|-------------------------------------------------

E------------------------------|--------------------------------1-------
B------------------------------|--------------------------------1-------
G------------5--3--5--3--------|-----------------------5--------2-------
D------------5--3--5--3--------|-----------------------5--------3-------
A------------------------------|----------------------------------------
E------------------------------|----------------------------------------

E---|-----------------1-----------------------------3-----3-------------
B---|-----------------1-----------------------------3-----3-------------
G---|-----------------2-----------------------------3-----3-------------
D---|-----------------3-----------------------------5-----5-------------
A---|-------------------------------------------------------------------
E---|-------------------------------------------------------------------

E------------6--------|--------6----------------------------------------
B------------6--------|--------6----------------------------------------
G------------7--------|--------7----------------------------------------
D------------8--------|--------8----------------------------------------
A---------------------|-------------------------------------------------
E---------------------|-------------------------------------------------

E---------------------------------------------|-------------------------
B---------------------------------------------|-------------------------
G---------------------------------------------|-------------------------
D---------------------------------------------|-------------------------
A---------------------------------------------|-------------------------
E---------------------------------------------|-------------------------

E---------------------------------------------------|-------------------
B---------------------------------------------------|-------------------
G---------------------7--7-----------------5--------|-----5-------------
D---------------------7--7-----------------5--------|-----5-------------
A---------------------5--5-----------------3--------|-----3-------------
E---------------------------------------------------|-------------------

E---------------------------------------------|-------------------------
B---------------------------------------------|-------------------------
G---------------------------------------------|-----5-----3-----5-------
D---------------------------------------------|-----5-----3-----5-------
A---------------------------------------------|-------------------------
E---------------------------------------------|-------------------------

E------------------------------------------------|----------------------
B------------------------------------------------|----------------------
G---3--------------------5-----------------------|----------------------
D---3--------------------5--------------------3--|-----3-----5-----3----
A---------------------------------------------1--|-----3-----5-----3----
E------------------------------------------------|-----3----------------

E---------------------------------------|-------------------------------
B---------------------------------------|-------------------------------
G------3--------------------------------|-------------------------------
D------3--------------5--------------5--|--------------3-----5-----3----
A---------------------5--------------5--|--------------3-----5-----3----
E---------------------3--------------3--|--------------3----------------

E---------------------------------------------------------------|-------
B---------------------------------------------------------------|-------
G------3--------------------------------------------------------|-------
D------3-----------------------5-----------------------5--------|-------
A------------------------------5-----------------------5--------|-------
E------------------------------3-----------------------3--------|-------

E---------------------3-------------------------------------------------
B---------------------3-------------------------------------------------
G---------------------3-------------------------------------------------
D---3-----5-----3-----3-----------------------5-------------------------
A---3-----5-----3-----------------------------5-------------------------
E---3-----------------------------------------3-------------------------

E---------------|-----------------------3-------------------------------
B---------------|-----------------------3-------------------------------
G---------------|-----------------------3-------------------------------
D---5-----------|-----3-----5-----3-----3--------------------5----------
A---5-----------|-----3-----5-----3--------------------------5----------
E---3-----------|-----3--------------------------------------3----------

E---------------------|-----------------------------3-------------------
B---------------------|-----------------------------3-------------------
G---------------------|-----------------------------3-------------------
D---------------5-----|-----------3-----5-----3-----3-------------------
A---------------5-----|-----------3-----5-----3-------------------------
E---------------3-----|-----------3-------------------------------------

E------------------------------|-----------------------------|----------
B------------------------------|-----------------------------|----------
G------------------------------|--------------------7--------|----------
D------5-----------------5-----|-----------5--------7--------|----------
A------5-----------------5-----|-----------5--------5--------|----------
E------3-----------------3-----|-----------3-----------------|----------

E---------2--------------------------------------------------------|----
B---------2--------------------------------------------------------|----
G---------4-----2-----4-----2--------------4--------------------4--|----
D---------4-----2-----4-----2--------------4--------------------4--|----
A---------2-----------------------------------------------------2--|----
E------------------------------------------------------------------|----

E------------2--------------------------------------------|-------------
B------------2--------------------------------------------|-------------
G------------4-----2-----4-----2--------------4--------4--|-------------
D------------4-----2-----4-----2--------------4--------4--|-----3-------
A------------2-----------------------------------------2--|-----3-------
E---------------------------------------------------------|-----1-------

E------------------------------------------------------|----------------
B------------------------------------------------------|----------------
G------------------------------------------------------|----------------
D---3-----3-----3-----------------3-----------------5--|-----3--5--3----
A---3-----3-----3-----------------3-----------------5--|-----3--5--3----
E---1-----1-----1-----------------1-----------------3--|-----3----------

E---3--------------------------------|----------------------------------
B---3--------------------------------|----------------------------------
G---3--------------------------------|--------------3-------------------
D---3--------------5--------------5--|-----3--5--3--3-----------5-------
A------------------5--------------5--|-----3--5--3--------------5-------
E------------------3--------------3--|-----3--------------------3-------

E---------|-----------------------3-------------------------------------
B---------|-----------------------3-------------------------------------
G---------|-----------------------3-------------------------------------
D------5--|-----3-----5-----3-----3-----------------5--------------5----
A------5--|-----3-----5-----3-----------------------5--------------5----
E------3--|-----3-----------------------------------3--------------3----

E---|--------------------------------------|--------------2-------------
B---|--------------------------------------|--------------2-------------
G---|--------------------------7-----------|--------------4-----2-------
D---|-----------------5--------7-----------|--------------4-----2-------
A---|-----------------5--------5-----------|--------------2-------------
E---|-----------------3--------------------|----------------------------

E------------------------------------------------|-----------2----------
B------------------------------------------------|-----------2----------
G---4-----2--------------4--------------------4--|-----------4-----2----
D---4-----2--------------4--------------------4--|-----------4-----2----
A---------------------------------------------2--|-----------2----------
E------------------------------------------------|----------------------

E---------------------------------------|-------------------------------
B---------------------------------------|-------------------------------
G------4-----2--------------4--------4--|-------------------------------
D------4-----2--------------4--------4--|-----3-----3-----3-----3-------
A------------------------------------2--|-----3-----3-----3-----3-------
E---------------------------------------|-----1-----1-----1-----1-------

E---------------------------------------|-------------------------------
B---------------------------------------|-------------------------------
G---------------------------------------|--------------------------3----
D---------------3-----------------5-----|--------3-----5-----3-----3----
A---------------3-----------------5-----|--------3-----5-----3----------
E---------------1-----------------3-----|--------3----------------------

E---------------------------------|--------------------------3----------
B---------------------------------|--------------------------3----------
G---------------------------------|--------------------------3----------
D---------------5-----------5-----|--------3-----5-----3-----3----------
A---------------5-----------5-----|--------3-----5-----3----------------
E---------------3-----------3-----|--------3----------------------------

E------------------------------------|-----------------------3----------
B------------------------------------|-----------------------3----------
G------------------------------------|-----------------------3----------
D---------------5-----------------5--|-----3-----5-----3-----3----------
A---------------5-----------------5--|-----3-----5-----3----------------
E---------------3-----------------3--|-----3----------------------------

E------------------------------------|----------------------------------
B------------------------------------|----------------------------------
G------------------------------------|--------------------------7-------
D---------------5-----------------5--|-----------------5--------7-------
A---------------5-----------------5--|-----------------5--------5-------
E---------------3-----------------3--|-----------------3----------------

E---------|-----------------2-------------------------------------------
B---------|-----------------2-------------------------------------------
G---------|-----------------4-----2-----4-----2--------------4----------
D---------|-----------------4-----2-----4-----2--------------4----------
A---------|-----------------2-------------------------------------------
E---------|-------------------------------------------------------------

E------------------|-----------------2--------------------|-------------
B------------------|-----------------2--------------------|-------------
G---------------4--|-----------------4-----2--4-----------|-------------
D---------------4--|-----------------4-----2--4-----------|-------------
A---------------2--|-----------------2--------------------|-------------
E------------------|--------------------------------------|-------------

E-----------------------------------------------------------------------
B-----------------------------------------------------------------------
G-----------------------------------------------------------------------
D------------3-----3-----3-----3-----------------------3----------------
A------------3-----3-----3-----3-----------------------3----------------
E------------1-----1-----1-----1-----------------------1----------------

E---------------|-----------------3-----------------------6-----|-------
B---------------|-----------------3-----------------------6-----|-------
G---------------|-----------------3-----------------------7-----|-------
D---------5-----|-----------------5-----------------------8-----|-------
A---------5-----|-----------------------------------------------|-------
E---------3-----|-----------------------------------------------|-------

E---------------------6-----------------------------|-------------------
B---------------------6-----------------------------|-------------------
G---------------------7-----------------------------|-------------------
D---------------------8-----------------------------|-------------------
A---------------------------------------------------|-------------------
E---------------------------------------------------|-------------------

E------------10-----10-----------------------------8---------|----------
B------------10-----10-----------------------------8---------|----------
G------------10-----10-----------------------------9---------|----------
D------------12-----12-----------------------------10--------|----------
A------------------------------------------------------------|----------
E------------------------------------------------------------|----------

E---8---------------------------------------|---------------------------
B---8---------------------------------------|---------------------------
G---9---------------------------------------|---------------------------
D---10--------------------------------------|---------------------------
A-------------------------------------------|---------------------------
E-------------------------------------------|---------------------------

E------------1-----1--------------------------3--------|----------------
B------------1-----1--------------------------3--------|----------------
G------------2-----2--------------------------3--------|----------------
D------------3-----3--------------------------5--------|----------------
A------------------------------------------------------|----------------
E------------------------------------------------------|----------------

E---3-----------------6-----|-----------------------6-------------------
B---3-----------------6-----|-----------------------6-------------------
G---3-----------------7-----|-----------------------7-------------------
D---5-----------------8-----|-----------------------8-------------------
A---------------------------|-------------------------------------------
E---------------------------|-------------------------------------------

E---------------|--------------------------10-----10--------------------
B---------------|--------------------------10-----10--------------------
G---------------|--------------------------10-----10--------------------
D---------------|--------------------------12-----12--------------------
A---------------|-------------------------------------------------------
E---------------|-------------------------------------------------------

E---------------8---------|-----8---------------------------------------
B---------------8---------|-----8---------------------------------------
G---------------9---------|-----9---------------------------------------
D---------------10--------|-----10--------------------------------------
A-------------------------|---------------------------------------------
E-------------------------|---------------------------------------------

E------|--------------------------------1-----1-------------------------
B------|--------------------------------1-----1-------------------------
G------|--------------------------------2-----2-------------------------
D------|--------------------------------3-----3-------------------------
A------|----------------------------------------------------------------
E------|----------------------------------------------------------------

E------3--------|--------------3-----------------6-----||---------------
B------3--------|--------------3-----------------6-----||---------------
G------3--------|--------------3-----------------7-----||---------------
D------5--------|--------------5-----------------8-----||---------------
A---------------|--------------------------------------||---------------
E---------------|--------------------------------------||---------------

E------------6----------------------------------------------------------
B------------6----------------------------------------------------------
G------------7----------------------------------------------------------
D------------8----------------------------------------------------------
A-----------------------------------------------------------------------
E-----------------------------------------------------------------------

E---------------------------------------------------|-------------------
B---------------------------------------------------|-------------------
G---------------------------------------------------|-------------------
D---------------------------------------------------|-------------------
A---------------------------------------------------|-------------------
E---------------------------------------------------|-------------------

E---------------------------------10--------10--------------------------
B---------------------------------10--------10--------------------------
G---------------------------------10--------10--------------------------
D---------------------------------12--------12--------------------------
A-----------------------------------------------------------------------
E-----------------------------------------------------------------------

E---------------8------------|-----8------------------------------------
B---------------8------------|-----8------------------------------------
G---------------9------------|-----9------------------------------------
D---------------10-----------|-----10-----------------------------------
A----------------------------|------------------------------------------
E----------------------------|------------------------------------------

E------------------------------------------------------|----------------
B------------------------------------------------------|----------------
G------------------------------------------------------|----------------
D------------------------------------------------------|----------------
A------------------------------------------------------|----------------
E------------------------------------------------------|----------------

E------------------------------------------------------1--------1-------
B------------------------------------------------------1--------1-------
G------------------------------------------------------2--------2-------
D------------------------------------------------------3--------3-------
A-----------------------------------------------------------------------
E-----------------------------------------------------------------------

E---------------------------------3--------------|--------------3-------
B---------------------------------3--------------|--------------3-------
G---------------------------------3--------------|--------------3-------
D---------------------------------5--------------|--------------5-------
A------------------------------------------------|----------------------
E------------------------------------------------|----------------------

E------------------------6-----------------|--------------6-------------
B------------------------6-----------------|--------------6-------------
G------------------------7-----------------|--------------7-------------
D------------------------8-----------------|--------------8-------------
A------------------------------------------|----------------------------
E------------------------------------------|----------------------------

E-----------------------------------------------------------------------
B-----------------------------------------------------------------------
G-----------------------------------------------------------------------
D-----------------------------------------------------------------------
A-----------------------------------------------------------------------
E-----------------------------------------------------------------------

E------------------------------------------|----------------------------
B------------------------------------------|----------------------------
G------------------------------------------|----------------------------
D------------------------------------------|----------------------------
A------------------------------------------|----------------------------
E------------------------------------------|----------------------------

E---------------10-----10-----------------------------8---------|-------
B---------------10-----10-----------------------------8---------|-------
G---------------10-----10-----------------------------9---------|-------
D---------------12-----12-----------------------------10--------|-------
A---------------------------------------------------------------|-------
E---------------------------------------------------------------|-------

E---8-------------------------------------------------------------------
B---8-------------------------------------------------------------------
G---9-------------------------------------------------------------------
D---10------------------------------------------------------------------
A-----------------------------------------------------------------------
E-----------------------------------------------------------------------

E---------------------------|--------------------------------1-----1----
B---------------------------|--------------------------------1-----1----
G---------------------------|--------------------------------2-----2----
D---------------------------|--------------------------------3-----3----
A---------------------------|-------------------------------------------
E---------------------------|-------------------------------------------

E---------------------------3--------|--------------3-------------------
B---------------------------3--------|--------------3-------------------
G---------------------------3--------|--------------3-------------------
D---------------------------5--------|--------------5-------------------
A------------------------------------|----------------------------------
E------------------------------------|----------------------------------

E---6-----||-----||------6-----------------------------------|----------
B---6-----||-----||------6-----------------------------------|----------
G---7-----||-----||*-----7-----------------------------------|----------
D---8-----||-----||*-----8-----------------------------------|----------
A---------||-----||------------------------------------------|----------
E---------||-----||------------------------------------------|----------

E------------------------------------10--------10-----------------------
B------------------------------------10--------10-----------------------
G------------------------------------10--------10-----------------------
D------------------------------------12--------12-----------------------
A-----------------------------------------------------------------------
E-----------------------------------------------------------------------

E------------------8------------|-----8---------------------------------
B------------------8------------|-----8---------------------------------
G------------------9------------|-----9---------------------------------
D------------------10-----------|-----10--------------------------------
A-------------------------------|---------------------------------------
E-------------------------------|---------------------------------------

E---------------------|--------------------------------------------1----
B---------------------|--------------------------------------------1----
G---------------------|--------------------------------------------2----
D---------------------|--------------------------------------------3----
A---------------------|-------------------------------------------------
E---------------------|-------------------------------------------------

E---------1-----------------------------3--------|----------------------
B---------1-----------------------------3--------|----------------------
G---------2-----------------------------3--------|----------------------
D---------3-----------------------------5--------|----------------------
A------------------------------------------------|----------------------
E------------------------------------------------|----------------------

E------3--------------------6---------||-----6--------------------------
B------3--------------------6---------||-----6--------------------------
G------3--------------------7--------*||-----7--------------------------
D------5--------------------8--------*||-----8--------------------------
A-------------------------------------||--------------------------------
E-------------------------------------||--------------------------------

E---------------------------------------|-------------------------------
B---------------------------------------|-------------------------------
G---------------------------------------|-------------------------------
D---------------------------------------|-------------------------------
A---------------------------------------|-------------------------------
E---------------------------------------|-------------------------------

E-----------------------------------------------------------------------
B---------------------------6-----------6-------------------------------
G---------------------------7-----------7-------------------------------
D---------------------------7-----------7-------------------------------
A---------------------------5-----------5-------------------------------
E-----------------------------------------------------------------------

E---------3--------------|-----3----------------------------------------
B---------3--------------|-----3----------------------------------------
G---------5--------------|-----5----------------------------------------
D---------5--------------|-----5----------------------------------------
A---------3--------------|-----3----------------------------------------
E------------------------|----------------------------------------------

E------------------------||---------------------------------------------
B------------------------||---------------------------------------------
G------------------------||---------------------------------------------
D------------------------||---------------------------------------------
A------------------------||---------------------------------------------
E------------------------||---------------------------------------------

========================================================================
==                       TABLATURE EXPLANATION                        ==
========================================================================

----------                ----------                ----t---
----5h8--- Hammeron       ----(8)--- Ghost          ----6--- Tap
----------                ---------- Note           --------
----5p8--- Pulloff        ----------                --------

----------                ----------                -----p--
----5/8--- Slide Up       -----x---- Dead           -----7-- Pop
----------                ---------- Note           --s-----
----5\8--- Slide Down     ----------                --5----- Slap

----------                ||------|| Repeat         --------
----5~~~-- Vibrato        ||*----*||                ---5^--- Bend
----------                ||*----*||                --------
----------                ||------||                --------

----------                ----------                --------
-4:------- Time           ----------                --------
-4:------- Signature      ----------                --------
----------                ----------                --------

Rhythm:
  w = whole note            W = dotted whole
  h = half note             H = dotted half
  q = quarter note          Q = dotted quarter
  e = eighth note           E = dotted eighth
  s = sixteenth note        S = dotted sixteenth
  t = 32nd note             T = dotted 32nd
  x = 64th note             X = dotted 64th
  ^ = triplet

========================================================================
==            Created with a demo version of BUCKET O' TAB            ==
==              tablature creation software for Windows               ==
==                  For more info email gse@his.com                   ==
========================================================================