Rush: Subdivisions
From the album Signals (Mercury Records)
Copyright 1982 Core Music Publishing
Music by Lee and Lifeson
Lyrics by Peart

Comments/corrections to Rich Soto 

PLEASE NOTE:
This transcription is my own personal work and interpretation of this
classic Rush song. It is to be used for study and is not guaranteed
to be 100% accurate.

I am aware that there is another transcript of this song in OLGA.
Please note that this version should serve as a more complete transcription.
It is a bar by bar transcript of the guitar parts and includes all meter
changes, rhythmic notations, performance notes.
Thanks to Patrick M. Ryan pat@jaameri.gsfc.nasa.gov for providing the basic
arrangment.

This transcription was created with the shareware version of Bucket 'O
Tab. It was further edited in WordPad.

PERFORMANCE NOTES:

This piece begins in 7/8. The guitars enter on the fourth bar (00:06)
with an overdriven sound and light reverb. Notice that the meter shifts
to 4/4 at (00:19). The meter again changes back to 7/8 at (00:58) and
does several meter changes throught the rest of the song. Alex begins
playing a single note line. This is repeated again at (01:20). In the
prechorus section (01:41) Alex switches to a clean sound with heavier
amounts of reverb and light chorusing (the trademark Lifeson clean tone).
Notice that the meter has changed to 3/4. Also be aware of the triplet
figure with open string pulloffs. Another staple of Alex's is the use
of note doubling (in this case the note B). Following the chorus Alex
switches to whole chords and 4ths to lay a driving rhythm foundation
while Geddy plays a short but very moody synth lead. This section
was difficult to get transcribed as there is a lot of movement. Pay
close attention to the last bars of this section. There is a syncopated
figure of 4 over 3 in the last two bars (02:38) before returning
primary rhythm figure for the second verse. The second verse is
basically a repeat of the first. After the second chorus, Geddy begins
with repeat of the synth solo. He judiciously rephrases is to give the
listener something more to grasp before trading off with Alex for the
guitar solo. The solo (04:18) shows Alex playing a sparse lead mixing
sustained notes and the usage of natural harmonics. Be sure to apply a
light dose of delay, phasing or flanging, sustain and vibrato
(especially with the harmonics). The last couple of bars of this solo
feature chordal soloing that was very difficult to pick out. I had to
use timestretching to get this one and am still not sure if I got it
exactly right. Note again that these last few bars of the solo are 4
over 3.
Have fun with this.
If anyone has any other requests for Rush transcripts drop me a line
at dunkel@thegrid.net

Transcription by Christian E. Dunkel
Completed June 7th, 1997


           w     w     w     w     q  q  q e     q  q  Q
E-------|--r--|--r--|--r--|--r--|-------------|-----------|-----------
B-------|--e--|--e--|--e--|--e--|-------------|-----------|-----------
G---7:--|--s--|--s--|--s--|--s--|-------------|--------3--|-----------
D---8:--|--t--|--t--|--t--|--t--|--4--4--4p3--|--4--4--4--|-----------
A-------|-----|-----|-----|-----|--4--4--4----|--4--4--4--|-----------
E-------|-----|-----|-----|-----|--2--2--2----|--2--2--2--|-----------
                                         Hold chord


    q  q  q e     q  q  Q     q  q  q e     q  q  Q
E--------------|-----------|-------------|-----------|----------------
B--------------|-----------|-------------|-----------|----------------
G--------------|--------3--|--4--4--4p0--|--------3--|----------------
D---4--4--4p3--|--4--4--4--|--4--4--4----|--4--4--4--|----------------
A---4--4--4----|--4--4--4--|--2--2--2----|--4--4--4--|----------------
E---2--2--2----|--2--2--2--|-------------|-----2--2--|----------------
          Hold chord                Hold chord


   q  q  q e     q  q  Q         e  e  e  e  e  e  e  e
E--------------|-----------|------------------------------|-----------
B--------------|-----------|------------------------------|-----------
G---4--4--4p2--|--------3--|--4:--------------------------|-----------
D---4--4--4----|--4--4--4--|--4:--------------------------|-----------
A---2--2--2----|--4--4--4--|------------------------------|-----------
E--------------|-----2--2--|------2--2--2--2--2--2--2--2--|-----------
          Hold chord


    e  e  e  e  e  e  e  e     e  e  e  e  e  e  e  e
E---------------------------|--------------------------|--------------
B---------------------------|--------------------------|--------------
G---------------------------|--------------------------|--------------
D---------4-----4-----4-----|--------------------------|--------------
A---------------------------|--------------------------|--------------
E---2--2-----2-----2-----2--|--2--2--2--2--2--2--2--2--|--------------



    e  e  e  e  e  e  e  e     q  q  h     q  q  h     q  q  h
E---------------------------|--------0--|--------0--|--------0--|-----
B---------------------------|--------0--|--------0--|--------0--|-----
G---------------------------|--4--4--4--|--2--2--2--|--4--4--4--|-----
D---------4-----4-----4-----|--4--4--4--|--2--2--2--|--4--4--4--|-----
A---------------------------|--2--2-----|--0--0-----|--2--2-----|-----
E---2--2-----2-----2-----2--|-----------|-----------|-----------|-----
                             Let chords ring


    q  q  h     q  q  h     q  q  h     e  e  e  q  e  e  e
E---------0--|--------0--|--------0--|-----------------------|--------
B---------0--|--------0--|--------0--|-----------------0-----|--------
G---2--2--2--|--4--4--4--|--2--2--2--|--------4--------------|--------
D---2--2--2--|--4--4--4--|--2--2--2--|-----5--------7-----7--|--------
A---0--0-----|--2--2-----|--0--0-----|--5--------7-----------|--------
E------------|-----------|-----------|-----------------------|--------
                                        Let all notes ring


    e  e  e  q  q  e     e  e  e  q  e  e  e
E---------------------|-----------------------|-----------------------
B------------7--------|-----------------0-----|-----------------------
G---------7-----7-----|--------4--------------|-----------------------
D------9-----------9--|-----5--------7-----7--|-----------------------
A---9-----------------|--5--------7-----------|-----------------------
E---------------------|-----------------------|-----------------------



    e  e  e  q  q  e     e  e  q  e  e  q     e  e  q  e  e
E---------------------|--------r--------r--|--------r--------|--------
B------------7--------|--------e--------e--|--------e--------|--------
G---------7-----7-----|--------s--------s--|--------s--------|--------
D------9-----------9--|--5--5--t--7--7--t--|--9--9--t--9--9--|--------
A---9-----------------|--5--5-----7--7-----|--9--9-----9--9--|--------
E---------------------|--3--3-----5--5-----|--7--7-----7--7--|--------



    e  e  q  e  e  e  e      w        e  e  e  e  e  e  e  e
E---------r--------r-----|-------||---------------------------|-------------
B---------e--------e-----|-------||---------------------------|-------------
G---------s--------s-----|-------||*--------------------------|-------------
D---5--5--t--7--7--t--9--|--(9)--||*--------------------------|-------------
A---5--5-----7--7-----9--|--(9)--||---------------------------|-------------
E---3--3-----5--5-----7--|--(7)--||---2--2--2--2--2--2--2--2--|-------------
                      Hold chord

                              1x "Sprawling on the fringes of the city..."
                              2x "Growing up it all seemed so..."
    e  e  e  e  e  e  e  e     e  e  e  e  e  e  e  e
E---------------------------|--------------------------|--------------
B---------------------------|--------------------------|--------------
G---------------------------|--------------------------|--------------
D---------4-----4-----4-----|--------------------------|--------------
A---------------------------|--------------------------|--------------
E---2--2-----2-----2-----2--|--2--2--2--2--2--2--2--2--|--------------


    e  e  e  e  e  e  e  e         q  q  q  e     q  q  q  e
E---------------------------|------------------|--------------|-------
B---------------------------|------------------|--------------|-------
G---------------------------|--7:--------------|--------------|-------
D---------4-----4-----4-----|--8:--------------|--------------|-------
A---------------------------|------2--2--2--2--|--0--0--0--0--|-------
E---2--2-----2-----2-----2--|------------------|--------------|-------


    q  q  q  e     q  q  q  e     q  q  q e     q  q  Q
E---------------|--------------|-------------|----------|-------------
B---------------|--------------|-------------|----------|-------------
G---------------|--------------|-------------|----------|-------------
D---------------|--------------|-------------|----------|-------------
A---2--2--2--2--|--0--0--0--0--|--5--5--5/7--|----------|-------------
E---------------|--------------|-------------|--9--9--9\|-------------


        e  e  q  e  e  q     e  e  q  e  e  q
E-------------r--------r--|--------r--------r--|----------------------
B-------------e--------e--|--------e--------e--|----------------------
G---4:--3--3--s--6--6--s--|--7--7--s--7--7--s--|----------------------
D---4:--4--4--t--7--7--t--|--9--9--t--9--9--t--|----------------------
A-------4--4-----7--7-----|--9--9-----9--9-----|----------------------
E-------2--2-----5--5-----|--7--7-----7--7-----|----------------------


                         "...dreamer or the misfit..."
    e  e  q  e  e  q       e  e  q  e  e  q
E---------r--------r---||--------r--------r--|------------------------
B---------e--------e---||--------e--------e--|------------------------
G---3--3--s--6--6--s--*||--7--7--s--7--7--s--|------------------------
D---4--4--t--7--7--t--*||--9--9--t--9--9--t--|------------------------
A---4--4-----7--7------||--9--9-----9--9-----|------------------------
E---2--2-----5--5------||--7--7-----7--7-----|------------------------



    e  e  q  e  e  q     e  e  q  e  e  q
E---------r--------r--|--------r--------r--||-------------------------
B---------e--------e--|--------e--------e--||-------------------------
G---3--3--s--6--6--s--|--7--7--s--7--7--s--||-------------------------
D---4--4--t--7--7--t--|--9--9--t--9--9--t--||-------------------------
A---4--4-----7--7-----|--9--9-----9--9-----||-------------------------
E---2--2-----5--5-----|--7--7-----7--7-----||-------------------------



        e  e  e  q  e     q  e  q  e     e  e  e  q  e
E----------------------|--------------|-----------------|-------------
B----------------0-----|-----0-----0--|-----------0-----|-------------
G---3:--------4-----4--|--2-----4-----|--------4-----4--|-------------
D---4:-----------------|--------------|-----------------|-------------
A----------2-----------|--------------|-----2-----------|-------------
E-------3--------------|--------------|--3--------------|-------------
        Let all notes ring throught chorus

                     "Subdivisions...In the high school halls..."
    e^e^ e^ e^e^ e^    e  e  e  q  e     q  e  q  e
E-------------------|-----------------|--------------|----------------
B--------0--0h2-----|-----------0-----|-----0-----0--|----------------
G---2h4----------4--|--------4-----4--|--2-----4-----|----------------
D-------------------|-----------------|--------------|----------------
A-------------------|-----2-----------|--------------|----------------
E-------------------|--3--------------|--------------|----------------



    e  e  e  q  e     e^e^ e^ e^e^ e^    e  e  e  q  e
E------------------|------------------|-----------------|-------------
B------------0-----|-------0--0h2-----|-----------0-----|-------------
G---------4-----4--|--2h4----------4--|--------4-----4--|-------------
D------------------|------------------|-----------------|-------------
A------2-----------|------------------|-----2-----------|-------------
E---3--------------|------------------|--3--------------|-------------



    e  e  e  e  e  e     e  e  e  q  e     q  e  q  e
E---------------------|-----------------|--------------|--------------
B------0-----0-----0--|-----------0-----|-----0-----0--|--------------
G---2-----4-----4-----|--------4-----4--|--2-----4-----|--------------
D---------------------|-----------------|--------------|--------------
A---------------------|-----2-----------|--------------|--------------
E---------------------|--3--------------|--------------|--------------



    e  e  e  q  e     e^e^ e^ e^e^ e^    e  e  e  q  e
E------------------|------------------|-----------------|-------------
B------------0-----|-------0--0h2-----|-----------0-----|-------------
G---------4-----4--|--2h4----------4--|--------4-----4--|-------------
D------------------|------------------|-----------------|-------------
A------2-----------|------------------|-----2-----------|-------------
E---3--------------|------------------|--3--------------|-------------



    e  e  e  e  e  e     e  e  e  q  e     q  e  q  e
E---------------------|-----------------|--------------|--------------
B------0-----0-----0--|-----------0-----|-----0-----0--|--------------
G---2-----4-----4-----|--------4-----4--|--2-----4-----|--------------
D---------------------|-----------------|--------------|--------------
A---------------------|-----2-----------|--------------|--------------
E---------------------|--3--------------|--------------|--------------


    "Any escape might help to soothe..."
    e  e  e  q  e     q  e  q  e     e  q  Q     Q  Q
E------------------|--------------|-----------|--------|--------------
B------------0-----|-----0-----0--|-----------|--------|--------------
G---------4-----4--|--2-----4-----|--2--2--2--|--4--2--|--------------
D------------------|--------------|-----------|--------|--------------
A------2-----------|--------------|-----------|--------|--------------
E---3--------------|--------------|-----------|--------|--------------



    e  e  e  q  e     e  e  e  q  e     Q  Q     q  q  E  s
E------------------|-----------------|--------|--------------|--------
B------0-----0-----|-----0-----0-----|--------|--------------|--------
G---0-----2-----4--|--2-----2-----4--|--2--2--|--4--4--2--2--|--------
D------------------|-----------------|--------|--------------|--------
A------------------|-----------------|--------|--------------|--------
E------------------|-----------------|--------|--------------|--------



    e  e  e  q  e     Q  Q     Q  Q     Q  e  e  e
E------------------|--------|--------|--------------|-----------------
B------------0-----|--------|--------|--------------|-----------------
G---------4-----4--|--2--4--|--2--2--|--4--2--------|-----------------
D------------------|--2--4--|--2--2--|--4-----------|-----------------
A------2-----------|--------|--------|--------5--4--|-----------------
E---3--------------|--------|--------|--------------|-----------------
    Synth lead:


    e  e  e  q  e     Q  Q     Q  Q     Q  q e     Q  Q
E------------------|--------|--------|----------|--------|------------
B------------0-----|--------|--------|-----3p2--|--3--3--|------------
G---------4-----4--|--2--4--|--2--2--|--4--2----|--0--0--|------------
D------------------|--2--4--|--2--2--|--4--2----|--0--0--|------------
A------2-----------|--------|--------|----------|--x--x--|------------
E---3--------------|--------|--------|----------|--3--3--|------------
                                           Hold chord


    Q  Q     Q  Q     Q  q  e     Q  Q     Q  Q     Q  Q
E---------|--------|-----------|--------|--------|--------|-----------
B---------|--------|-----------|--3-----|--------|--------|-----------
G---2--4--|--2--2--|--4--2--4--|--0--0--|--2--4--|--2--2--|-----------
D---2--4--|--2--2--|--4--2--4--|--0--0--|--2--4--|--2--2--|-----------
A---------|--------|-----------|-----x--|--------|--------|-----------
E---------|--------|-----------|-----3--|--------|--------|-----------
                                  Hold chord


    Q  Q     H     E  E  Q         q  q  Q     q  q  Q
E---------|--3--|-----------|---------------|-----------||------------
B---------|--3--|-----------|---------------|-----------||------------
G---4--2--|--0--|--2--2--4--|--7:-----------|-----------||------------
D---4--2--|--0--|--2--2--4--|--8:--4--4--4--|--4--4--4--||------------
A---------|--2--|--0--0--2--|------4--4--4--|--4--4--4--||------------
E---------|--3--|-----------|------2--2--2--|--2--2--2--||------------



    e  e  e  e  e  e  e  e     e  e  e  e  e  e  e  e
E---------------------------|--------------------------|--------------
B---------------------------|--------------------------|--------------
G---------------------------|--------------------------|--------------
D---------------------------|--------4-----4-----4-----|--------------
A---------------------------|--------------------------|--------------
E---2--2--2--2--2--2--2--2--|--2--2-----2-----2-----2--|--------------


    "Run like moths..."
    e  e  e  e  e  e  e  e     e  e  e  e  e  e  e  e
E---------------------------|--------------------------|--------------
B---------------------------|--------------------------|--------------
G---------------------------|--------------------------|--------------
D---------------------------|--------4-----4-----4-----|--------------
A---------------------------|--------------------------|--------------
E---2--2--2--2--2--2--2--2--|--2--2-----2-----2-----2--|--------------



        q  q  q  e     q  q  q  e     q  q  q  e     q  q  q  e
E-------------------|--------------|--------------|--------------|----
B-------------------|--------------|--------------|--------------|----
G---7:--------------|--------------|--------------|--------------|----
D---8:--------------|--------------|--------------|--------------|----
A-------2--2--2--2--|--0--0--0--0--|--2--2--2--2--|--0--0--0--0--|----
E-------------------|--------------|--------------|--------------|----



    q  q  q e     q  q  q  e        e  e  q  e  e  q
E--------------|-------------|------------r--------r--|---------------
B--------------|-------------|------------e--------e--|---------------
G--------------|-------------|--4:--4--4--s--6--6--s--|---------------
D--------------|-------------|--4:--5--5--t--7--7--t--|---------------
A---5--5--5/7--|-------------|------5--5-----7--7-----|---------------
E--------------|--9--9--9--9\|------3--3-----5--5-----|---------------



    e  e  q  e  e  q     e  e  q  e  e  q
E---------r--------r--|--------r--------r--|--------------------------
B---------e--------e--|--------e--------e--|--------------------------
G---7--7--s--7--7--s--|--4--4--s--6--6--s--|--------------------------
D---9--9--t--9--9--t--|--5--5--t--7--7--t--|--------------------------
A---9--9-----9--9-----|--5--5-----7--7-----|--------------------------
E---7--7-----7--7-----|--3--3-----5--5-----|--------------------------



    e  e  e  e  e  e  e  e     e  e  e  e  e  e  e  e
E---------------------------|--------------------------|--------------
B---------------------------|--------------------------|--------------
G---------------------------|--------------------------|--------------
D---------------------------|--------4-----4-----4-----|--------------
A---------------------------|--------------------------|--------------
E---2--2--2--2--2--2--2--2--|--2--2-----2-----2-----2--|--------------



    e  e  e  e  e  e  e  e     e  e  e  e  e  e  e  e
E---------------------------|--------------------------|--------------
B---------------------------|--------------------------|--------------
G---------------------------|--------------------------|--------------
D---------------------------|--------4-----4-----4-----|--------------
A---------------------------|--------------------------|--------------
E---2--2--2--2--2--2--2--2--|--2--2-----2-----2-----2--|--------------



        q  q  Q     q  q  q  e     q  q  Q     q  q  q  e
E-------------0--|-----0-----0--|--------0--|-----0-----0--|----------
B-------------0--|-----0-----0--|--------0--|-----0-----0--|----------
G---7:--------4--|-----2--2--2--|--------4--|-----2--2--2--|----------
D---8:-----4--4--|--2-----2--2--|-----4-----|--2-----2-----|----------
A-------2--------|--0-----0--0--|--2--------|--0-----0-----|----------
E----------------|--------------|-----------|--------------|----------
        Let all chords ring


    q  q  Q     q  q  q  e         e  e  q  e  e  q
E---------0--|-----0-----0--|------------r--------r--|----------------
B---------0--|-----0-----0--|------------e--------e--|----------------
G---------4--|-----2--2--2--|--4:--4--4--s--6--6--s--|----------------
D------4--4--|--2-----2--2--|--4:--5--5--t--7--7--t--|----------------
A---2--------|--0-----0-----|------5--5-----7--7-----|----------------
E------------|--------------|------3--3-----5--5-----|----------------



    e  e  q  e  e  q     e  e  q  e  e  q     e  e  q  e  e  q
E---------r--------r--|--------r--------r--|--------r--------r--|-----
B---------e--------e--|--------e--------e--|--------e--------e--|-----
G---7--7--s--7--7--s--|--4--4--s--6--6--s--|--7--7--s--7--7--s--|-----
D---9--9--t--9--9--t--|--5--5--t--7--7--t--|--9--9--t--9--9--t--|-----
A---9--9-----9--9-----|--5--5-----7--7-----|--9--9-----9--9-----|-----
E---7--7-----7--7-----|--3--3-----5--5-----|--7--7-----7--7-----|-----



    e  e  q  e  e  q     e  e  q  e  e  q
E---------r--------r--|--------r--------r--||-------------------------
B---------e--------e--|--------e--------e--||-------------------------
G---4--4--s--6--6--s--|--7--7--s--7--7--s--||-------------------------
D---5--5--t--7--7--t--|--9--9--t--9--9--t--||-------------------------
A---5--5-----7--7-----|--9--9-----9--9-----||-------------------------
E---3--3-----5--5-----|--7--7-----7--7-----||-------------------------



        e  e  e  q  e     q  e  q  e     e  e  e  q  e
E----------------------|--------------|-----------------|-------------
B----------------4-----|-----0-----0--|-----------0-----|-------------
G---3:--------0-----0--|--2-----4-----|--------4-----4--|-------------
D---4:-----------------|--------------|-----------------|-------------
A----------2-----------|--------------|-----2-----------|-------------
E-------3--------------|--------------|--3--------------|-------------


                   "Subdivisions...In the high school halls..."
    E  E  E  E     e  e  e  q  e     q  e  q  e
E---------------|-----------------|--------------|--------------------
B---0-----------|-----------0-----|-----0-----0--|--------------------
G------2--------|--------4-----4--|--2-----4-----|--------------------
D---------5--4--|-----------------|--------------|--------------------
A---------------|-----2-----------|--------------|--------------------
E---------------|--3--------------|--------------|--------------------



    e  e  e  q  e     e^e^ e^ e^e^ e^    e  e  e  q  e
E------------------|------------------|-----------------|-------------
B------------0-----|-------0--0h2-----|-----------0-----|-------------
G---------4-----4--|--2h4----------4--|--------4-----4--|-------------
D------------------|------------------|-----------------|-------------
A------2-----------|------------------|-----2-----------|-------------
E---3--------------|------------------|--3--------------|-------------



    e  e  e  e  e  e     e  e  e  q  e     q  e  q  e
E---------------------|-----------------|--------------|--------------
B------0-----0-----0--|-----------0-----|-----0-----0--|--------------
G---2-----4-----4-----|--------4-----4--|--2-----4-----|--------------
D---------------------|-----------------|--------------|--------------
A---------------------|-----2-----------|--------------|--------------
E---------------------|--3--------------|--------------|--------------



    e  e  e  q  e     e^e^ e^ e^e^ e^    e  e  e  q  e
E------------------|------------------|-----------------|-------------
B------------4-----|-------0--0h2-----|-----------0-----|-------------
G---------0-----0--|--2h4----------4--|--------4-----4--|-------------
D------------------|------------------|-----------------|-------------
A------2-----------|------------------|-----2-----------|-------------
E---3--------------|------------------|--3--------------|-------------



    e  e  e  e  e  e     e  e  e  q  e     q  e  q  e
E---------------------|-----------------|--------------||-------------
B------0-----0-----0--|-----------0-----|-----0-----0--||-------------
G---2-----4-----4-----|--------4-----4--|--2-----4-----||-------------
D---------------------|-----------------|--------------||-------------
A---------------------|-----2-----------|--------------||-------------
E---------------------|--3--------------|--------------||-------------



    e  e  e  q  e     Q  Q     Q  Q     Q  e  e  e
E------------------|--------|--------|--------------|-----------------
B------------0-----|--------|--------|--------------|-----------------
G---------4-----4--|--2--4--|--2--2--|--4--2--------|-----------------
D------------------|--2--4--|--2--2--|--4--2--------|-----------------
A------2-----------|--------|--------|--------5--4--|-----------------
E---3--------------|--------|--------|--------------|-----------------
    Synth lead:


    e  e  e  Q     Q  Q     Q  Q     Q  Q     Q  Q     Q  Q
E---------------|--------|--------|--------|--3--3--|--------|--------
B------0-----0--|--------|--------|--------|--3--3--|--------|--------
G---0-----2-----|--2--4--|--2--2--|--4--2--|--0--0--|--2--4--|--------
D---------------|--2--4--|--2--2--|--4--2--|--0--0--|--2--4--|--------
A---------------|--------|--------|--------|--------|--------|--------
E---------------|--------|--------|--------|--------|--------|--------



    Q  Q     Q  Q     Q  Q     Q  Q     Q  Q     Q  Q      H
E---------|--------|--3--3--|--------|--------|--------||-----|-------
B---------|--------|--3--3--|--------|--------|--------||-----|-------
G---2--2--|--4--2--|--0--0--|--2--4--|--2--2--|--4--2--||--7--|-------
D---2--2--|--4--2--|--0--0--|--2--4--|--2--2--|--4--2--||--0--|-------
A---------|--------|--2--2--|--0--2--|--------|--------||-----|-------
E---------|--------|--3--3--|--------|--------|--------||-----|-------
                                                        Guitar solo:


    q  q    e   e      H        e  e    h         H
E-------------------|--------|-----------------|--------|-------------
B-------------------|--------|-----------------|--8~~~--|-------------
G---9/(11)\(9)p(7)--|--9~~~--|-----------------|--------|-------------
D-------------------|--------|--9/(11)\(7)~~~--|--------|-------------
A-------------------|--------|-----------------|--------|-------------
E-------------------|--------|-----------------|--------|-------------



    q  q    e   e      H          Q       Q
E-------------------|---------|------------------|--------------------
B---10/12p(10)\(8)--|--10~~~--|--(5)~~~----------|--------------------
G-------------------|---------|----------(5)~~~--|--------------------
D-------------------|---------|------------------|--------------------
A-------------------|---------|------------------|--------------------
E-------------------|---------|------------------|--------------------
                                 Harmonics
                                 Vibrato w/bar on all harmonics throught

     Q       Q               Q  Q
E-------------------|--------9--10--|----------|----------------------
B-------------------|--(10)---------|----------|----------------------
G---(4)~~~--(5)~~~--|---------------|----------|----------------------
D-------------------|---------------|----------|----------------------
A-------------------|---------------|--(5)~~~--|----------------------
E-------------------|---------------|----------|----------------------
    Harmonics         rake____|      Harmonic


    e   e   e   q   e      q   e   q   e      E   E   E   E
E-----------------------|----------10------|------------------|-------
B---12--12--------------|--12------12------|--14--14--14--14--|-------
G---12--12------12--12--|--12--12----------|--14--14--14--14--|-------
D---12--12------12------|------------------|--14--14--14--14--|-------
A-----------10----------|--------------12--|------------------|-------
E-----------------------|------------------|------------------|-------



    E   E   E   E       e  e  e  q  e     q  e  q  e
E---12--------------||-----------------|--------------|---------------
B---14------14------||-----------0-----|-----0-----0--|---------------
G---14------14--14--||--------4-----4--|--2-----4-----|---------------
D-----------14--14--||-----------------|--------------|---------------
A-------12----------||-----2-----------|--------------|---------------
E-------------------||--3--------------|--------------|---------------
                   Long slide on A string from 12th fret at end of solo
                        Let all notes ring throught

    e  q  Q     Q  Q     e  e  e  q  e     e  e  e  q  e
E------------|--------|-----------------|-----------------|-----------
B------------|--------|-----0-----0-----|-----0-----0-----|-----------
G---2--2--2--|--4--2--|--0-----2-----4--|--0-----2-----4--|-----------
D------------|--------|-----------------|-----------------|-----------
A------------|--------|-----------------|-----------------|-----------
E------------|--------|-----------------|-----------------|-----------



    Q  Q     q  q  E  s       H     Q  Q     H     Q  Q     H
E---------|--------------||------|--------|-----|--------|-----|------
B---------|--------------||------|--------|-----|--------|-----|------
G---2--2--|--4--4--2--2--||*--0--|--2-----|--0--|--2--4--|--0--|------
D---------|--------------||*--0--|--2--4--|--0--|--2--4--|--0--|------
A---------|--------------||---2--|--0--4--|--2--|--0--2--|--2--|------
E---------|--------------||---3--|-----2--|--3--|--------|--3--|------



    Q  Q     H     q  q  q       H     Q  Q     H     Q  Q
E---------|-----|------------||-----|--------|-----|--------|---------
B---------|-----|------------||-----|-----3--|-----|-----2--|---------
G---2-----|--0--|--2--4--7--*||--0--|--2--4--|--0--|--2--2--|---------
D---2--4--|--0--|--2--4--7--*||--0--|--2--4--|--0--|--2--4--|---------
A---0--4--|--2--|--0--2--5---||--2--|--0--0--|--2--|--0--0--|---------
E------2--|--3--|------------||--3--|--------|--3--|--------|---------



    H     H     H     H     H
E---3--|--3--|--3--|--(3)--|--3--||-------------------------------------
B---3--|--3--|--3--|--(3)--|--3--||-------------------------------------
G---0--|--0--|--0--|--(0)--|--0--||-------------------------------------
D---0--|--0--|--0--|--(0)--|--0--||-------------------------------------
A---2--|--2--|--2--|--(2)--|--2--||-------------------------------------
E---3--|--3--|--3--|--(3)--|--3--||-------------------------------------
                Hold chord



======================================================================
==                      TABLATURE EXPLANATION                       ==
======================================================================

----------                ----------                ----t---
----5h8--- Hammeron       ----(8)--- Ghost          ----6--- Tap
----------                ---------- Note           --------
----5p8--- Pulloff        ----------                --------

----------                ----------                -----p--
----5/8--- Slide Up       -----x---- Dead           -----7-- Pop
----------                ---------- Note           --s-----
----5\8--- Slide Down     ----------                --5----- Slap

----------                ||------|| Repeat         --------
----5~~~-- Vibrato        ||*----*||                ---5^--- Bend
----------                ||*----*||                --------
----------                ||------||                --------

----------                ----------                --------
-4:------- Time           ----------                --------
-4:------- Signature      ----------                --------
----------                ----------                --------

Rhythm:
  w = whole note            W = dotted whole
  h = half note             H = dotted half
  q = quarter note          Q = dotted quarter
  e = eighth note           E = dotted eighth
  s = sixteenth note        S = dotted sixteenth
  t = 32nd note             T = dotted 32nd
  x = 64th note             X = dotted 64th
  ^ = triplet

======================================================================
==           Created with a demo version of BUCKET O' TAB           ==
==             tablature creation software for Windows              ==
==                 For more info email gse@his.com                  ==
======================================================================