Rush: Resist
From the album Test for Echo (Atlantic Records)
Copyright 1996 Core Music Publishing
Music by Lee and Lifeson
Lyrics by Peart

Transcribed by Richard J. Soto 

Last updated 2 July 1998

This song is tuned a full step down to D, G, C, F, A, D
Alex uses a modified Godin guitar live I believe, with dual outputs.
Since the studio recording has multiple and overlaping guitars, this
transcription has been arranged for one guitar (electric with acoustic
sounding capabilities) as if it were being performed live by one guitarist,
as on The Test For Echo Tour.

**Note: This and all my tabs are available for the asking as an "Instab"
file, to fully utilize Instab's special printing feature, by simply
requesting the file be sent to you via email.

---------------------------------------------------------|--------------------
---------------------------------------------------------|--------------------
-5------7--------------------5------7--------------------|--------------------
-5------7------7------5------5------7------3-------------|--------------------
-3------5------7------5------3------5------3-------------|--------------------
-3------5------5------3------3------5------1-------------|--------------------
 Rhy.1 Play 2x

---------------2-------|----------3-------------|-------------2-------2-|-----
-----1-1--1------3---3-|-----1--------0-3---3---|-----1---------3---3---|-----
---0---0-----------0---|-------2----0-----0---0-|---0---0---------0-----|-----
-------------0---------|---2--------------------|-----------0-----------|-----
-3---------------------|-0----------------------|-3---------------------|-----
-----------------------|------------------------|-----------------------|-----
 Rhy.2a                  Rhy.2b                   Rhy.2c

-------1-----1---|---------------2-------|----------3------------|------------
---------1-------|-----1-1--1------3---3-|-----1--------0-3-1-0-1|------------
-----2-----------|---0---0-----------0---|-------2----0----------|------------
---3-------------|-------------0---------|---2-------------------|------------
-3---------------|-3---------------------|-0---------------------|------------
-----------------|-----------------------|-----------------------|------------
 Rhy.2d            Rhy.2e                  Rhy.2f

-------------2-------|-------1-----1---|--------------------------------------
-----1-----3---3-----|---------1-------|----------------------15------12------
---0---0---------2---|-----2-----------|-14---14b-r-12-----12-----------------
---------0-----------|---3-------------|--------------------------------------
-3-------------------|-3---------------|--------------------------------------
---------------------|-----------------|--------------------------------------
 Rhy.2g                Rhy.2h            Riff-A

-------|--------------------------------------------|-------------|-----------
-------|------------------------15--------12--------|-------------|-----------
-14-12-|-14-----14b-r-12-----12-------14--------12--|-------------|-14---14b--
-------|--------------------------------------------|-------------|-----------
-------|--------------------------------------------|-------------|-----------
-------|--------------------------------------------|-------------|-----------
         Riff-B                                       Play Riff-A

----------15------12-------|---------------|------------|---------------------
--------------15-----------|---------------|------------|---------------------
-r-12--12------------------|---------------|------------|---------------------
---------------------------|---------------|------------|---------------------
---------------------------|---------------|------------|---------------------
---------------------------|---------------|------------|---------------------
                             Play Rhy.2a-h   Play Rhy.1

-----------------------------|------------------------|----------------|------
-----------------------------|------------------------|----------------|------
-7-9-7-9-7---12-14-12-14-12--|-7-9-7-9-7---7-9-7-9-7--|----------------|-7-9--
-7-9-7-9-7---12-14-12-14-12--|-7-9-7-9-7---7-9-7-9-7--|----------------|-7-9--
-----------------------------|------------------------|----------------|------
-----------------------------|------------------------|----------------|------
 Riff-C Play 3x           .            .           .    Play Riff-C 3x

-----------------|----------------------------|-------------------------------
-----------------|----------------------------|-------------------------------
-7-9-7---7-9-7-9-|-5------7-------------------|-------------------------------
-7-9-7---7-9-7-9-|-5------7------7------------|-------------------------------
-----------------|-3------5------7------------|-------------------------------
-----------------|-3------5------5------------|-------------------------------


-0----------0----------3----------2----------3--------|-0----------0----------
-1----------1----------3----------3----------3--------|-1----------1----------
-0----------0----------0----------2----------2--------|-0----------0----------
-2----------2----------0----------0----------0--------|-2----------2----------
-3----------3----------2----------0----------0--------|-3----------3----------
-3----------3----------3----------x----------x--------|-3----------3----------


-3------3------3----|------------------------------------------------|--------
-3------3------3----|------------------------------------------------|--------
-0------0------0----|------------------------------------------------|--------
-0------0------0----|-5-5-5-5-5-5-7-7-7-7-7---7-7-7-7-7-7-5-5-5-5-5-5|5-5-5-5-
-2------2------2----|-3-3-3-3-3-3-5-5-5-5-5-0-7-7-7-7-7-7-5-5-5-5-5-5|3-3-3-3-
-3------3------3----|-3-3-3-3-3-3-5-5-5-5-5-0-5-5-5-5-5-5-3-3-3-3-3-3|3-3-3-3-
                      Muted**************************************************

----------------------------------------|-------------------------------------
----------------------------------------|-------------------------------------
-----------------2-2-2-2-2-2-2-2-2-2-2-2|-5--5-5-5--7--7-7-7------------------
-5-5-7-7-7-7-7-7-3-3-3-3-3-3-3-3-3-3-3-3|-5--5-5-5--7--7-7-7--7--7-7-7--5--5--
-3-3-5-5-5-5-5-5-3-3-3-3-3-3-3-3-3-3-3-3|-3--3-3-3--5--5-5-5--7--7-7-7--5--5--
-3-3-5-5-5-5-5-5-1-1-1-1-1-1-1-1-1-1-1-1|-3--3-3-3--5--5-5-5--5--5-5-5--3--3--
 ***********                              Play 5x

-----------------------------------------------------|-------------|----------
-----------------------------------------------------|-------------|----------
------5--5-5-5--7--7-7-7--10--10-10-10--10--10-10-10-|-------------|----------
-5-5--5--5-5-5--7--7-7-7--10--10-10-10--10--10-10-10-|-------------|----------
-5-5--3--3-3-3--5--5-5-5---8---8--8--8---8---8--8--8-|-------------|----------
-3-3--3--3-3-3--5--5-5-5---8---8--8--8---8---8--8--8-|-------------|----------
                                                       Play Riff-A

--------------------15---------------------------|-3--------------------------
-----------------------------15----------12------|-3--------------------------
-14---14b-r-12--12-------14----------14----------|-0--------------------------
-------------------------------------------------|-0--------------------------
-------------------------------------------------|-2--------------------------
-------------------------------------------------|-3--------------------------