Rush: Red Sector A
From the album Grace Under Pressure (Mercury Records)
Copyright 1984 Core Music Publishing
Music by Lee and Lifeson
Lyrics by Peart

Transcribed by: Richard J. Soto
Email: lerxst@zeus.jersey.net

There's a digital delay throughout the entire song with a bouncing echo.
Solo has a harmonizer set to a perfect 5th which changes the sound of the
pitch of the natural harmonics played. Previously tabbed by Jimmy Pena.

-15------12----12----------15-vvvvvvv-|-12-12--12---12-------12-12--12-vvv--|-
-13------13----15----13----13-vvvvvvv-|-13-13--15---13-------13-13--15-vvv--|-
-14------14----14----14----14-vvvvvvv-|-14-14--14---14---14--14-14--14-vvv--|-
--------------------------------------|-------------------------------------|-
--------------------------------------|-------------------------------------|-
--------------------------------------|-------------------------------------|-
 Rhy.1    .     .             Bar           .   .    .           .

-5-5--5---5---5---5-5---5----------|-5-------8------5-5---------|-------------
-6-6--5---5---5---6-6---8----------|-6---8---6---6--6-6---6-vvv-|-------------
-5-5--5---7---5---5-5---5----------|-5---7---5---5--5-5---5-vvv-|-------------
-7-7--7---7---7---7-7---7----------|-7---9---7---7--7-7---7-vvv-|-------------
-----------------------------------|----------------------5-vvv-|-------------
-----------------------------------|----------------------------|-------------
   .  .   .         .                    .   .        .     Bar

----------|-12-vvvv--|------------|-12----12--------5----------|--------------
----------|-13-vvvv--|------------|-13----15--------6----8-vvv-|--------------
-10-vvvv--|-14-vvvv--|------------|-14----14--------5----5-vvv-|--------------
-10-vvvv--|-12-vvvv--|------------|----------------------7-vvv-|--------------
--8-vvvv--|-12-vvvv--|------------|----------------------------|--------------
----------|----------|------------|----------------------------|--------------
    Bar        Bar     Play Rhy.1                          Bar

-0------0-0----5--------------------|-----------------------------------------
-3------1-1----5--------------------|-----------------------------------------
-2------2-2----5--------------------|-----------------------------------------
-0------2-2----7--------------------|-----------------------------------------
--------0-0----7--------------------|-----------------------------------------
---------------5--------------------|-----------------------------------------
 Rhy.6 Play 3x

-0------0-0----1--------5----------5----|------------|-5-----------------|----
-3------1-1----1--------5----------5----|------------|-5-----------------|----
-2------2-2----2--------5----------5----|------------|-5-----------------|----
-0------2-2----3--------7----------7----|------------|-7-----------------|----
--------0-0----3--------7----------7----|------------|-7-----------------|----
---------------1--------5----------5----|------------|-5-----------------|----
 Rhy.7    .                        .      Play Rhy.6

--------------------5-5-5-5-5----|-3----------|-3----------|-------------|----
--------------------5-5-5-5-5----|-3----------|-3----------|-------------|----
--------------------5-5-5-5-5----|-0----------|-0----------|-------------|----
--------------------7-7-7-7-7----|-0----------|-0----------|-------------|----
-7--5-5--8--5--7-7--7-7-7-7-7----|-2----------|-2----------|-------------|----
--------------------5-5-5-5-5----|-3----------|-3----------|-------------|----
 Riff-A Play 4x  .          .                                Play Riff-A

-5----------5----5--------0-------------------------------------|-------------
-5----------5----5--------0-----------------0-------------0-----|-------------
-5----------5----5--------4---------------2-----2-------2---2---|-------------
-7----------7----7--------2----2--0-----3-------------3---------|-------------
-7----------7----7--------2-------------------------------------|-------------
-5----------5----5--------0----------1-------------1------------|-------------
 Rhy.8           .

-5----------5----5--------0-------------------------------------|-------------
-5----------5----5--------0-----------------0-------------0-----|-------------
-5----------5----5--------4---------------2-----2-------2-----2-|-------------
-7----------7----7--------2----2--0-----3-------------3---------|-------------
-7----------7----7--------2-------------------------------------|-------------
-5----------5----5--------0----------1-------------1------------|-------------
 Rhy.9           .

----------------|-3----------|-3----------|-------------|------------|--------
----------------|-3----------|-3----------|-------------|------------|--------
----------------|-0----------|-0----------|-------------|------------|--------
----------------|-0----------|-0----------|-------------|------------|--------
----------------|-2----------|-2----------|-------------|------------|--------
----------------|-3----------|-3----------|-------------|------------|--------
 Play Riff-A 4x                             Play Riff-A   Play Rhy.8

-5----------5----5--------0-----------------------1----1----|--------------|--
-5----------5----5--------0----------------0------1----1----|--------------|--
-5----------5----5--------4--------------2-----2--2----2----|--------------|--
-7----------7----7--------2---2--0-----3----------3----3----|--------------|--
-7----------7----7--------2-----------------------3----3----|--------------|--
-5----------5----5--------0---------1-------------1----1----|--------------|--
 Rhy.10                                                       Play Rhy.6 2x

------------|------------|----------------------------------------------------
------------|------------|----------------------------------------------------
------------|------------|----------------------------------------------------
------------|------------|----------------------------------------------------
------------|------------|----------------------------------------------------
------------|------------|----------------------------------------------------
 Play Rhy.7   Play Rhy.6

------------------------------------------------------------------------------
------------------------------------------------------------12^---------------
-------7^------------------12^----------------------------------12^-----------
-------7^-----------------------12^-----7^--------------------------12^-12^---
-------------7^-------------------------------7^------------------------------
------------------------------------------------------------------------------
 Solo (Natural Harmonics*****************************************************

------------------------------------------------------------------------------
-------------7^----------------------7^-------7^-12-------12-13----15----13---
-------5^----------7^----------5^-5^-------7^----12---------------------------
----5^----------------------5^-------------------12----12-------12----12------
-4^----------------------4^---------------------------------------------------
------------------------------------------------------------------------------
 **********************************************)        x        x     x

-----------------------------12-12-12-12-------------12-----------------------
-13-13-13-12-13----12--------13-13-13-13----15----15----15-13-15-13-13--------
----------12-14----12--------14-14-14-14----------------12-12-12----12--------
--------------------------------------------------------------------14--------
------------------------------------------------------------------------------
------------------------------------------------------------------------------
                    .                        .                       .

-------7--7--------7--------------------12--12----------12-12-----------------
-5/7-8-8--8--7--5--8-7h8--7----12-13-12-15--15--10--10--13-12-----------------
-5/7-7-7--7--7--5--7-7----7----12-12-12-12--12--10--10--12-12-----------------
-5/7-7-9--9--7--5--9-7h9--7----12-12-12-14--14--10--10--14-12-----------------
------------------------------------------------------------------------------
------------------------------------------------------------------------------
       .  .  .  .         .              .   .   .   .

--------------------8---------------------------------------------------------
-----1/-------12^--10------------1--------12^-------10----13-13p12-vv---------
---2-----12^-------10----------------2---------12^--10------------------------
-2-----------------10--------------2----------------10------------------------
--------------------8---------------------------------------------------------
------------------------------------------------------------------------------


-0---0---0---3-------3-3-3-3-3-------0-------0-------0-------3----------------
-1---1---1---1-------1-1-1-1-1-------1-------3-------1-------3----------------
-2---2---2---0-------0-0-0-0-0-------0-------0-------0-------4----------------
-2---2---2---2-------2-2-2-2-2-------2-------3-------3-------5------------5---
-------------------------------------------------------------5------------5---
-------------------------------------------------------------3----------------


-3-------------------10-10-10-10-10-10-10-vvvv--||----------------------------
-3-------------------10-10-10-10-10-10-10-vvvv--||----------------------------
-4-------------------12-12-12-12-12-12-12-vvvv--||----------------------------
-5-------------------12-12-12-12-12-12-12-vvvv--||----------------------------
-5-------------------10-10-10-10-10-10-10-vvvv--||----------------------------
-3-------------------10-10-10-10-10-10-10-vvvv--||----------------------------


---------0---0-0---0---0-------0-------0-|------------|------------|--------|-
---------1---3-3---1---3-------3-------1-|------------|------------|-10--10-|-
---------2---2-2---2---2---2---2---2---2-|------------|------------|-12--12-|-
---------2---2-2---2---2---2---2---2---2-|------------|------------|-12--12-|-
---------------------------0-------0-----|------------|------------|-10--10-|-
-----------------------------------------|------------|------------|--------|-
 Play 2x .     .   .   .   .   .   .   .   Play Rhy.8  Play Rhy.10    .   .

-0--0---0-0----5--------------------|-----------|-----------|--------------|--
-3--3---1-1----5--------------------|-----------|-----------|--------------|--
-2--2---2-2----5--------------------|-----------|-----------|--------------|--
-0--0---2-2----7--------------------|-----------|-----------|--------------|--
--------0-0----7--------------------|-----------|-----------|--------------|--
---------------5--------------------|-----------|-----------|--------------|--
    .     .                          Play Rhy.6  Play Rhy.7  Play Rhy.6 2x

------------|-12-12----12---12---------15-vvvvvvvv-|--------------------------
------------|-13-13----15---13----13---13-vvvvvvvv-|--------------------------
------------|-14-14----14---14----14---14-vvvvvvvv-|--------------------------
------------|--------------------------------------|--------------------------
------------|--------------------------------------|--------------------------
------------|--------------------------------------|--------------------------
 Play Rhy.7       .     .    .             Bar

-12--12-12-12--12----12-------12--12-12-12--12-vvv-|--------------------------
-13--13-13-13--15----13---13--13--13-13-13--15-vvv-|--------------------------
-14--14-14-14--14----14---14--14--14-14-14--14-vvv-|--------------------------
---------------------------------------------------|--------------------------
---------------------------------------------------|--------------------------
---------------------------------------------------|--------------------------
                                               Bar

-5-5--5---5---5---5-5---5-vvv-------|-------------|-12-vvvvv-|--------------|-
-6-6--5---5---5---6-6---8-vvv-------|-10-vvvvvvvv-|-13-vvvvv-|-8---vvvvvvvv-|-
-5-5--5---7---5---5-5---5-vvv-------|-10-vvvvvvvv-|-14-vvvvv-|-5---vvvvvvvv-|-
-7-7--7---7---7---7-7---7-vvv-------|-10-vvvvvvvv-|-12-vvvvv-|-7---vvvvvvvv-|-
------------------------------------|--8-vvvvvvvv-|-12-vvvvv-|-5---vvvvvvvv-|-
------------------------------------|-------------|----------|--------------|-
   .  .   .         .     Bar             Bar          Bar .   ring+Bar  end


#-----------------------------------------------------------------------------#
#-- File created with Instab - http://www.pconline.com/~smcarey/instab.html --#
#-----------------------------------------------------------------------------#