Rush: Nobody's Hero
From the album Counterparts (Atlantic Records)
Copyright 1993 Core Music Publishing
Music by Lee and Lifeson
Lyrics by Peart

Comment/corrections to Augusto Rafaelli 

Tablature by Augusto Raffaelli and Hemme Luttjeboer

There is a part of the tab that I disagree with - the F(addG)/A chord)

Effects

Guitar 1 - 12-String Acoustic
Guitar 2 - Distortion (Dropped-D Tuning)
Guitar 3 - Distortion

 |
 |Guitar 1
 |
 |   Gm            F               Bb(sus2)                  C(sus2)
 |
 |   e   s s s s s s e   s s s s s s   e   s s s s s s e   s s e   s s
E|---3---3-3-3-3-3-1-1---1-1-1-1-1-1-|-1---1-1---1---1-1---X-3-3-----3-|
B|---3---3-3-3-3-3-1-1---1-1-1-1-1-1-|-1---1-1---1---1-1---X-3-3---3-3-|
G|4:-3---3-3-3-3-3-2-2---2-2-2-2-2-3-|-3---3-3-3-3-3-3-3---X-5-5---5-5-|
D|4:-5---5---5---5---3---3---3---3-3-|-3---3---3---3---3-------5---5---|
A|---5---5---5---5---3---3---3---3---|-1---1---1---1---1-------3---3---|
E|---3---3---3---3---1---1---1---1---|---------------------------------|

 |
 |Guitar 1
 |
 | Gm              F(addG)/A     F
 |
 | e   s s s s s s s s s s s s s s   e   s s s s s s e   s s s s s s
E|-3---3-3-3-3-3-3-3-3-3-3-3-3-X-1-|-1---1-1-1-1-1-1-1---1-1-1-1-1-X-|
B|-3---3-3-3-3-3-3-6-6-6-6-6-6-X-1-|-1---1-1-1-1-1-1-1---1-1-1-1-1-X-|
G|-3---3-3-3-3-3-3-5-5-5-5-5-5-X-2-|-2---2-2-2-2-2-2-2---2-2-2-2-2-X-|
D|-5---5---5---5---3---3---3---X---|-3---3---3---3---3---3---3---3---|
A|-5---5---5---5-------------------|-3---3---3---3---3---3---3---3---|
E|-3---3---3---3---5---5---5-------|-1---1---1---1---1-------1---1---|

 |
 |Guitar 1
 |
 | Gm            F               Bb(sus2)
 |
 | e   s s s s s s e   s s s s s s   e   s s s s s s e   s s s s s s
E|-3---3-3-3-3-3-1-1---1-1-1-1-1-1-|-1---1-1---1---1-1---1-1---1---X-|
B|-3---3-3-3-3-3-1-1---1-1-1-1-1-1-|-1---1-1---1---1-1---1-1---1---X-|
G|-3---3-3-3-3-3-2-2---2-2-2-2-2-3-|-3---3-3-3-3-3-3-3---3-3-3-3-3-X-|
D|-5---5---5---5---3---3---3---3-3-|-3---3---3---3---3---3---3---3---|
A|-5---5---5---5---3---3---3---3---|-1---1---1---1---1---1---1---1---|
E|-3---3---3---3---1---1---1---1---|---------------------------------|

 |
 |Guitar 1
 |
 | Gm              F(addG)/A     F
 |
 | e   s s s s s s s s s s s s s s   e   s s s s s s e   s s s s s s
E|-3---3-3-3-3-3-3-3-3-3-3-3-3-X-1-|-1---1-1-1-1-1-1-1---1-1-1-1-1-X-|
B|-3---3-3-3-3-3-3-6-6-6-6-6-6-X-1-|-1---1-1-1-1-1-1-1---1-1-1-1-1-X-|
G|-3---3-3-3-3-3-3-5-5-5-5-5-5-X-2-|-2---2-2-2-2-2-2-2---2-2-2-2-2-X-|
D|-5---5---5---5---3---3---3---X---|-3---3---3---3---3---3---3---3---|
A|-5---5---5---5-------------------|-3---3---3---3---3---3---3---3---|
E|-3---3---3---3---5---5---5-------|-1---1---1---1---1-------1---1---|

 |
 |Guitar 1
 |
 | Gm            F               Bb(sus2)
 |
 | e   s s s s s s e   s s s s s s   e   s s s s s s e   s s s s s s
E|-3---3-3-3-3-3-1-1---1-1-1-1-1-1-|-1---1-1---1---1-1---1-1---1---X-|
B|-3---3-3-3-3-3-1-1---1-1-1-1-1-1-|-1---1-1---1---1-1---1-1---1---X-|
G|-3---3-3-3-3-3-2-2---2-2-2-2-2-3-|-3---3-3-3-3-3-3-3---3-3-3-3-3-X-|
D|-5---5---5---5---3---3---3---3-3-|-3---3---3---3---3---3---3---3---|
A|-5---5---5---5---3---3---3---3---|-1---1---1---1---1---1---1---1---|
E|-3---3---3---3---1---1---1---1---|---------------------------------|

 |
 |Guitar 1
 |
 | Gm            F(addG)/A           F
 |
 | s s s s s s s s s s s s s s s s   e   s s s s s s e   s s s s s s
E|-3-3-3-3-3-3-3---3-3-3-3-3-3-3-X-|-1---1-1-1-1-1-1-1---1-1-1-1-1-X-|
B|-3-3-3-3-3-3-3-6-6-6-6-6-6-6-6-X-|-1---1-1-1-1-1-1-1---1-1-1-1-1-X-|
G|-3-3-3-3-3-3-3-5-5-5-5-5-5-5-5-X-|-2---2-2-2-2-2-2-2---2-2-2-2-2-X-|
D|-5-5-5---5-5-5-3-3---3---3---3-X-|-3---3---3---3---3---3---3---3---|
A|-5---5---5---5-------------------|-3---3---3---3---3---3---3---3---|
E|-3---3---3---3-5-5---5---5---5---|-1---1---1---1---1-------1---1---|

 |
 |Guitar 1
 |
 | Eb(addF)/G                        Gm            F               Bb(sus2)
 |
 | s s s s s s s s e   s s s s s s   e   s s s s s s e   s s s s s s
E|---1---1---1---1-------1---1-----|-3---3-3-3-3-3-1-1---1-1-1-1-1-1-|
B|-4-4-4-4-4-4-4-4-4---4-4-4-4-4---|-3---3-3-3-3-3-1-1---1-1-1-1-1-1-|
G|-3-3-3-3-3-3-3-3-3---3-3-3-3-3---|-3---3-3-3-3-3-2-2---2-2-2-2-2-3-|
D|-1-1-1---1-1-1---1---1---1---1-1-|-5---5---5---5---3---3---3---3-3-|
A|-------------------------------1-|-5---5---5---5---3---3---3---3---|
E|-3---3---3---3---3---3---3---3-1-|-3---3---3---3---1---1---1---1---|

 |
 |Guitar 1
 |
 |                                   Gm            F(addG)/A
 |
 | e   s s s s s s e   s s s s s s   s s s s s s s s s s s s s s s s
E|-1---1-1---1---1-1---1-1---1---X-|-3-3-3-3-3-3-3---3-3-3-3-3-3-3-X-|
B|-1---1-1---1---1-1---1-1---1---X-|-3-3-3-3-3-3-3-6-6-6-6-6-6-6-6-X-|
G|-3---3-3-3-3-3-3-3---3-3-3-3-3-X-|-3-3-3-3-3-3-3-5-5-5-5-5-5-5-5-X-|
D|-3---3---3---3---3---3---3---3---|-5-5-5---5-5-5-3-3---3---3---3-X-|
A|-1---1---1---1---1---1---1---1---|-5---5---5---5-------------------|
E|---------------------------------|-3---3---3---3-5-5---5---5---5---|

 |
 |Guitar 1
 |
 | Dm              C(sus2)       Bb(sus2)
 |
 | e   s s s s s s e   s s s s s s     w+q
E|-------5---5-----------3---3-----|---1---------------------------------------|
B|-6---6-6---6-----3---3-3---3-3\1-|---1---------------------------------------|
G|-7---7-7-7-7-7-5-5---5-5-5-5-5\3-|5:-3---------------------------------------|
D|-7---7-7-7-7-7-5-5---5-5-5---5\3-|4:-3---------------------------------------|
A|-5---5---5---5-5-3---3---3---3\1-|---1---------------------------------------|
E|---------------------------------|-------------------------------------------|
                                                                   Guitar 1 out

 |
 |Guitar 2
 |
 |   Dm                                C(sus2)
 |
 |   E     s e   e   E     s e   s s   Q           e   q       e   e
E|---5---------------5-------5-------|-3---------------3---------------|
B|---6-------6-------6-------6-------|-3-----------3---3-------3-------|
G|4:-7-------7-------7-------7-------|-5-----------5---5-------5-------|
D|4:-7-------7-------7-------7---7\5-|-5-----------5---5-------5---5-\-|
A|---5-----5-5---0---5-----0-5-------|-3-----------3---3-------3---3-\-|
D|---0-----------0-------------------|---------------------------------|

 |
 |Guitar 2
 |
 | A5              Am                G5
 |
 | Q           e   Q           s s   Q           e   q       q
E|-----------------5---------------|---------------------------------|
B|-----------------5---------------|-3-----------3---3-------3---\---|
G|-----------------5---------------|-0-----------0---0-------0-------|
D|-2-------------------------------|-0-----------0---0-------0-------|
A|-0-----------7---------------7\5-|-5-----------5---5-------5---\---|
D|-------------7---------------7\5-|-5-----------5---5-------5---\---|

 |
 |Guitar 2
 |
 | F                                 Dm
 |
 | E     s e   e   q       E     s   E     s e   e   E     s e   s s
E|-1-----------1---1-------1-------|-5---------------5-------5-------|
B|-1-----------1---1-------1-------|-6-------6-------6-------6-------|
G|-2-----------2---2-------2-------|-7-------7-------7-------7-------|
D|-3-----------3---3-------3-------|-7-------7-------7-------7---7\5-|
A|---------------------------------|-5-----5-5---0---5-----0-5-------|
D|-3-----3-3---3---3-------3-----3-|-0-----------0-------------------|

 |
 |Guitar 2
 |
 | C(sus2)                           G
 |
 | Q           e   q       q         q+s       s e   e   e   e   e
E|-3---------------3-------3-------|---------------------------------|
B|-3-----------3---3-------3-------|-----------------------------3---|
G|-5-----------5---5-------5-------|-4---------------4---4---4---4---|
D|-5-----------5---5-------5-------|-5-----------5---5---5---5---5---|
A|-3-----------3---3-------3-------|-5-----------5---5---5---5---5---|
D|---------------------------------|-5---------5-----5---5---5-------|

 |
 |Guitar 2
 |
 | Dm                                C(sus2)
 |
 | E     s e   e   E     s e   s s   Q           e   q       e   e
E|-5---------------5-------5-------|-3---------------3---------------|
B|-6-------6-------6-------6-------|-3-----------3---3-------3-------|
G|-7-------7-------7-------7-------|-5-----------5---5-------5---5-\-|
D|-7-------7-------7-------7---7\5-|-5-----------5---5-------5---3-\-|
A|-5-----5-5---0---5-----0-5-------|-3-----------3---3-------3-------|
D|-0-----------0-------------------|---------------------------------|

 |
 |Guitar 2
 |
 | A5              Am                G5
 |
 | Q           e   Q           s s   Q           e   q       q
E|-----------------5---------------|---------------------------------|
B|-----------------5---------------|-3-----------3---3-------3---\---|
G|-----------------5---------------|-0-----------0---0-------0-------|
D|-2-------------------------------|-0-----------0---0-------0-------|
A|-0-----------7---------------7\5-|-5-----------5---5-------5---\---|
D|-------------7---------------7\5-|-5-----------5---5-------5---\---|

 |
 |Guitar 2
 |
 | F                                 Dm
 |
 | E     s e   e   q       E     s   E     s e   e   E     s e   s s
E|-1-----------1---1-------1-------|-5---------------5-------5-------|
B|-1-----------1---1-------1-------|-6-------6-------6-------6-------|
G|-2-----------2---2-------2-------|-7-------7-------7-------7-------|
D|-3-----------3---3-------3-------|-7-------7-------7-------7---7\5-|
A|---------------------------------|-5-----5-5---0---5-----0-5-------|
D|-3-----3-3---3---3-------3-----3-|-0-----------0-------------------|

 |
 |Guitar 2
 |
 | C(sus2)                           Am              G
 |
 | Q           e   Q       e   e     h               Q+s           s
E|-3---------------3---------------|-5---------------3---------------|
B|-3-----------3---3-------3-------|-5---------------3---------------|
G|-5-----------5---5-------5-------|-5---------------4---------------|
D|-5-----------5---5-------5---5-\-|-7---------------5---------------|
A|-3-----------3---3-------3---3-\-|-7---------------5---------------|
D|---------------------------------|-7---------------5------------/7-|

 |
 |Guitar 2
 |
 | Dm
 |
 | q       e   e   h
E|-5-------5---5---5---------------|
B|-6-------6---6---6---------------|
G|-7-------7---7---7---------------|
D|-7-------7---7---7---------------|
A|-5-------5-------5---------------|
D|-0---------------0---------------|
                       Guitar 2 out

 |
 |Guitar 1
 |
 | Gm              F                       Bb(sus2)
 |
 | e   s s s s  s  s  e     s  s  s  s  s  s
E|-3---3-3-3-3--3--1--1-----1--1--1--1--1--1--|
B|-3---3-3-3-3--3--1--1-----1--1--1--1--1--1--|
G|-3---3-3-3-3--3--2--2-----2--2--2--2--2--3--|
D|-5---5---5----5-----3-----3-----3-----3--3--|
A|-5---5---5----5-----3-----3-----3-----3-----|
E|-3---3---3----3-----1-----1-----1-----1-----|
 |
 |Guitar 3
 | E     s+s s  s  s  s  s  s  s  s  s  s  s
E|--------------------------------------------|
B|-11----11--11-11-11-11h13-11-13-11h13-10-11-|
G|-0------------------------------------------|
D|--------------------------------------------|
A|--------------------------------------------|
E|--------------------------------------------|

 |
 |Guitar 1
 |
 |                       C(sus2)
 |
 | e   s s s s s s e   s s e   s s
E|-1---1-1---1---1-1---X-3-3-----3-|
B|-1---1-1---1---1-1---X-3-3---3-3-|
G|-3---3-3-3-3-3-3-3---X-5-5---5-5-|
D|-3---3---3---3---3-------5---5---|
A|-1---1---1---1---1-------3---3---|
E|---------------------------------|
 |
 |Guitar 3
 | E     s+q        h
E|---------------------------------|
B|-------15--------(15)vvv---------|
G|-15------------------------------|
D|-15------------------------------|
A|---------------------------------|
E|---------------------------------|

 |
 |Guitar 1
 |
 | Gm                   F(addG)/A            F
 |
 | e   s s s s  s   s   s  s  s   s s  s  s  s
E|-3---3-3-3-3--3---3---3--3--3---3-3--3--X--1--|
B|-3---3-3-3-3--3---3---6--6--6---6-6--6--X--1--|
G|-3---3-3-3-3--3---3---5--5--5---5-5--5--X--2--|
D|-5---5---5----5-------3-----3-----3-----X-----|
A|-5---5---5----5-------------------------------|
E|-3---3---3----3-------5-----5-----5-----------|
 |
 |Guitar 3
 | E     s+s s  s   s   S  t  s   s+s  s  s  s
E|-------15--15-----15--15\13-----13---13----13-|
B|-16-----------15-(15)-------13-(13)-----13----|
G|----------------------------------------------|
D|----------------------------------------------|
A|----------------------------------------------|
E|----------------------------------------------|

 |
 |Guitar 1
 |
 |                        Eb
 |
 | e    s s s s  s  s  s  s s s s s s s
E|-1----1-1---1-----1--1----3-3-3-3-3---|
B|-1----1-1-1-1--1--1--1--4-4-4-4-4-4-4-|
G|-2----2-2-2-2--2--2--2--3-3-3-3-3-3-3-|
D|-3----3---3----3-----3--1-1---1-1-1-1-|
A|-3----3---3----3-----3----------------|
E|-1----1---1----1-----1----------------|
 |
 |Guitar 3
 | s  e   s+s s  s  s  s  E     q
E|--------------------------------------|
B|-11h13--13--13-13-13-13-11----11------|
G|----------------------------(A.H.)----|
D|--------------------------------------|
A|--------------------------------------|
E|--------------------------------------|

 |
 |Guitar 1
 |
 | Gm            F               Bb(sus2)
 |
 | e   s s s s s s e   s s s s s s   e   s s s s s s e   s s s s s s
E|-3---3-3-3-3-3-1-1---1-1-1-1-1-1-|-1---1-1---1---1-1---1-1---1---X-|
B|-3---3-3-3-3-3-1-1---1-1-1-1-1-1-|-1---1-1---1---1-1---1-1---1---X-|
G|-3---3-3-3-3-3-2-2---2-2-2-2-2-3-|-3---3-3-3-3-3-3-3---3-3-3-3-3-X-|
D|-5---5---5---5---3---3---3---3-3-|-3---3---3---3---3---3---3---3---|
A|-5---5---5---5---3---3---3---3---|-1---1---1---1---1---1---1---1---|
E|-3---3---3---3---1---1---1---1---|---------------------------------|
 |
 |Guitar 3
 |  w
E|---------------------------------|
B|-(11)vvv-------------------------|
G|---------------------------------|
D|---------------------------------|
A|---------------------------------|
E|---------------------------------|
                       Guitar 3 out

 |
 |Guitar 1
 |
 | Gm            F(addG)/A           F
 |
 | s s s s s s s s s s s s s s s s   e   s s s s s s e   s s s s s s
E|-3-3-3-3-3-3-3---3-3-3-3-3-3-3-X-|-1---1-1-1-1-1-1-1---1-1-1-1-1-X-|
B|-3-3-3-3-3-3-3-6-6-6-6-6-6-6-6-X-|-1---1-1-1-1-1-1-1---1-1-1-1-1-X-|
G|-3-3-3-3-3-3-3-5-5-5-5-5-5-5-5-X-|-2---2-2-2-2-2-2-2---2-2-2-2-2-X-|
D|-5-5-5---5-5-5-3-3---3---3---3-X-|-3---3---3---3---3---3---3---3---|
A|-5---5---5---5-------------------|-3---3---3---3---3---3---3---3---|
E|-3---3---3---3-5-5---5---5---5---|-1---1---1---1---1-------1---1---|

 |
 |Guitar 1
 |
 | Gm            F               Bb(sus2)
 |
 | e   s s s s s s e   s s s s s s   e   s s s s s s e   s s s s s s
E|-3---3-3-3-3-3-1-1---1-1-1-1-1-1-|-1---1-1---1---1-1---1-1---1---X-|
B|-3---3-3-3-3-3-1-1---1-1-1-1-1-1-|-1---1-1---1---1-1---1-1---1---X-|
G|-3---3-3-3-3-3-2-2---2-2-2-2-2-3-|-3---3-3-3-3-3-3-3---3-3-3-3-3-X-|
D|-5---5---5---5---3---3---3---3-3-|-3---3---3---3---3---3---3---3---|
A|-5---5---5---5---3---3---3---3---|-1---1---1---1---1---1---1---1---|
E|-3---3---3---3---1---1---1---1---|---------------------------------|

 |
 |Guitar 1
 |
 | Gm              F(addG)/A     F
 |
 | e   s s s s s s s s s s s s s s   e   s s s s s s e   s s s s s s
E|-3---3-3-3-3-3-3-3-3-3-3-3-3-X-1-|-1---1-1-1-1-1-1-1---1-1-1-1-1-X-|
B|-3---3-3-3-3-3-3-6-6-6-6-6-6-X-1-|-1---1-1-1-1-1-1-1---1-1-1-1-1-X-|
G|-3---3-3-3-3-3-3-5-5-5-5-5-5-X-2-|-2---2-2-2-2-2-2-2---2-2-2-2-2-X-|
D|-5---5---5---5---3---3---3---X---|-3---3---3---3---3---3---3---3---|
A|-5---5---5---5-------------------|-3---3---3---3---3---3---3---3---|
E|-3---3---3---3---5---5---5-------|-1---1---1---1---1-------1---1---|

 |
 |Guitar 1
 |
 | Eb(addF)/G                        Gm            F               Bb(sus2)
 |
 | s s s s s s s s e   s s s s s s   e   s s s s s s e   s s s s s s
E|---1---1---1---1-------1---1-----|-3---3-3-3-3-3-1-1---1-1-1-1-1-1-|
B|-4-4-4-4-4-4-4-4-4---4-4-4-4-4---|-3---3-3-3-3-3-1-1---1-1-1-1-1-1-|
G|-3-3-3-3-3-3-3-3-3---3-3-3-3-3---|-3---3-3-3-3-3-2-2---2-2-2-2-2-3-|
D|-1-1-1---1-1-1---1---1---1---1-1-|-5---5---5---5---3---3---3---3-3-|
A|-------------------------------1-|-5---5---5---5---3---3---3---3---|
E|-3---3---3---3---3---3---3---3-1-|-3---3---3---3---1---1---1---1---|

 |
 |Guitar 1
 |
 |                                   Gm            F(addG)/A
 |
 | e   s s s s s s e   s s s s s s   s s s s s s s s s s s s s s s s
E|-1---1-1---1---1-1---1-1---1---X-|-3-3-3-3-3-3-3---3-3-3-3-3-3-3-X-|
B|-1---1-1---1---1-1---1-1---1---X-|-3-3-3-3-3-3-3-6-6-6-6-6-6-6-6-X-|
G|-3---3-3-3-3-3-3-3---3-3-3-3-3-X-|-3-3-3-3-3-3-3-5-5-5-5-5-5-5-5-X-|
D|-3---3---3---3---3---3---3---3---|-5-5-5---5-5-5-3-3---3---3---3-X-|
A|-1---1---1---1---1---1---1---1---|-5---5---5---5-------------------|
E|---------------------------------|-3---3---3---3-5-5---5---5---5---|

 |
 |Guitar 1
 |
 | Dm              C(sus2)       Bb(sus2)
 |
 | e   s s s s s s e   s s s s s s     e   s s s s s s
E|-------5---5-----------3---3-----|---1-----1---1-1---|
B|-6---6-6---6-----3---3-3---3-3\1-|---1---1-1---1-1---|
G|-7---7-7-7-7-7-5-5---5-5-5-5-5\3-|2:-3---3-3-3-3-3---|
D|-7---7-7-7-7-7-5-5---5-5-5---5\3-|4:-3---3---3---3-1-|
A|-5---5---5---5-5-3---3---3---3\1-|---1---1---1---1-1-|
E|---------------------------------|-------------------|

 |
 |Guitar 1
 |
 |   Gm
 |
 |   w+q
E|---3---------------------------------------|
B|---3---------------------------------------|
G|5:-3---------------------------------------|
D|4:-5---------------------------------------|
A|---5---------------------------------------|
E|---3---------------------------------------|
                                 Guitar 1 out

 |
 |Guitar 2
 |
 |   Dm                                C(sus2)
 |
 |   E     s e   e   E     s e   s s   Q           e   q       e   e
E|---5---------------5-------5-------|-3---------------3---------------|
B|---6-------6-------6-------6-------|-3-----------3---3-------3-------|
G|4:-7-------7-------7-------7-------|-5-----------5---5-------5-------|
D|4:-7-------7-------7-------7---7\5-|-5-----------5---5-------5---5-\-|
A|---5-----5-5---0---5-----0-5-------|-3-----------3---3-------3---3-\-|
D|---0-----------0-------------------|---------------------------------|

 |
 |Guitar 2
 |
 | A5              Am                G5
 |
 | Q           e   Q           s s   Q           e   q       q
E|-----------------5---------------|---------------------------------|
B|-----------------5---------------|-3-----------3---3-------3---\---|
G|-----------------5---------------|-0-----------0---0-------0-------|
D|-2-------------------------------|-0-----------0---0-------0-------|
A|-0-----------7---------------7\5-|-5-----------5---5-------5---\---|
D|-------------7---------------7\5-|-5-----------5---5-------5---\---|

 |
 |Guitar 2
 |
 | F                                 Dm
 |
 | E     s e   e   q       E     s   E     s e   e   E     s e   s s
E|-1-----------1---1-------1-------|-5---------------5-------5-------|
B|-1-----------1---1-------1-------|-6-------6-------6-------6-------|
G|-2-----------2---2-------2-------|-7-------7-------7-------7-------|
D|-3-----------3---3-------3-------|-7-------7-------7-------7---7\5-|
A|---------------------------------|-5-----5-5---0---5-----0-5-------|
D|-3-----3-3---3---3-------3-----3-|-0-----------0-------------------|

 |
 |Guitar 2
 |
 | C(sus2)                           G
 |
 | Q           e   q       q         q+s       s e   e   e   e   e
E|-3---------------3-------3-------|---------------------------------|
B|-3-----------3---3-------3-------|-----------------------------3---|
G|-5-----------5---5-------5-------|-4---------------4---4---4---4---|
D|-5-----------5---5-------5-------|-5-----------5---5---5---5---5---|
A|-3-----------3---3-------3-------|-5-----------5---5---5---5---5---|
D|---------------------------------|-5---------5-----5---5---5-------|

 |
 |Guitar 2
 |
 | Dm                                C(sus2)
 |
 | E     s e   e   E     s e   s s   Q           e   q       e   e
E|-5---------------5-------5-------|-3---------------3---------------|
B|-6-------6-------6-------6-------|-3-----------3---3-------3-------|
G|-7-------7-------7-------7-------|-5-----------5---5-------5---5-\-|
D|-7-------7-------7-------7---7\5-|-5-----------5---5-------5---3-\-|
A|-5-----5-5---0---5-----0-5-------|-3-----------3---3-------3-------|
D|-0-----------0-------------------|---------------------------------|

 |
 |Guitar 2
 |
 | A5              Am                G5
 |
 | Q           e   Q           s s   Q           e   q       q
E|-----------------5---------------|---------------------------------|
B|-----------------5---------------|-3-----------3---3-------3---\---|
G|-----------------5---------------|-0-----------0---0-------0-------|
D|-2-------------------------------|-0-----------0---0-------0-------|
A|-0-----------7---------------7\5-|-5-----------5---5-------5---\---|
D|-------------7---------------7\5-|-5-----------5---5-------5---\---|

 |
 |Guitar 2
 |
 | F                                 Dm
 |
 | E     s e   e   q       E     s   E     s e   e   E     s e   s s
E|-1-----------1---1-------1-------|-5---------------5-------5-------|
B|-1-----------1---1-------1-------|-6-------6-------6-------6-------|
G|-2-----------2---2-------2-------|-7-------7-------7-------7-------|
D|-3-----------3---3-------3-------|-7-------7-------7-------7---7\5-|
A|---------------------------------|-5-----5-5---0---5-----0-5-------|
D|-3-----3-3---3---3-------3-----3-|-0-----------0-------------------|

 |
 |Guitar 2
 |
 | C(sus2)                           Am              G
 |
 | Q           e   Q       e   e     h               Q+s           s
E|-3---------------3---------------|-5---------------3---------------|
B|-3-----------3---3-------3-------|-5---------------3---------------|
G|-5-----------5---5-------5-------|-5---------------4---------------|
D|-5-----------5---5-------5---5-\-|-7---------------5---------------|
A|-3-----------3---3-------3---3-\-|-7---------------5---------------|
D|---------------------------------|-7---------------5------------/7-|

 |
 |Guitar 2
 |
 | Dm
 |
 | q       e   e   h
E|-5-------5---5---5---------------|
B|-6-------6---6---6---------------|
G|-7-------7---7---7---------------|
D|-7-------7---7---7---------------|
A|-5-------5-------5---------------|
D|-0---------------0---------------|
                       Guitar 2 out

 |
 |Guitar 1
 |
 | Gm            F               Bb(sus2)                    C(sus2)
 |
 | e   s s s s s s e   s s s s s s   e   s s s s s  s  e   s s  e   s  s
E|-3---3-3-3-3-3-1-1---1-1-1-1-1-1-|-1---1-1---1----1--1---X-3--3------3--|
B|-3---3-3-3-3-3-1-1---1-1-1-1-1-1-|-1---1-1---1----1--1---X-3--3---3--3--|
G|-3---3-3-3-3-3-2-2---2-2-2-2-2-3-|-3---3-3-3-3-3--3--3---X-5--5---5--5--|
D|-5---5---5---5---3---3---3---3-3-|-3---3---3---3-----3--------5---5-----|
A|-5---5---5---5---3---3---3---3---|-1---1---1---1-----1--------3---3-----|
E|-3---3---3---3---1---1---1---1---|--------------------------------------|
 |
 |Guitar 3
 | E     s+s s s s e   s s e   s s   e   s s s s s  s  E     s  e   s  s
E|-3-----3---3-3-1-5---5-5-5-------|-------------------10-----------------|
B|-3-----3---3-3-1-6---6-6-6-----6-|-11----------11----11-------11--11----|
G|-----------------------------0---|-10--X-X-X-X----10-10----10--------10-|
D|---------------------------------|--------------------------------------|
A|---------------------------------|--------------------------------------|
E|---------------------------------|--------------------------------------|

 |
 |Guitar 1
 |
 |  Gm              F                      Eb
 |
 |  e   s s s s  s  s  e   s s s s  s  s   s s s s s  s  s s s s s s s s s s
E|--3---3-3-3-3--3--1--1---1-1-1-1--1--1-|-3-3---3-3--3--3-3---3---3---3---3-|
B|--3---3-3-3-3--3--1--1---1-1-1-1--1--1-|-4-4-4-4-4--4--4-4-4-4-4-4-4-4-4-4-|
G|--3---3-3-3-3--3--2--2---2-2-2-2--2--3-|-3-3-3-3-3--3--3-3-3-3-3-3-3-3-3-3-|
D|--5---5---5----5-----3---3---3----3--3-|-1---1---1-----1---1---1---1---1---|
A|--5---5---5----5-----3---3---3----3----|-----------------------------------|
E|--3---3---3----3-----1---1---1----1----|-----------------------------------|
 |
 |Guitar 3
 |  E     s+s s  s  s  E     s+s s  e      E     /s+e\   e   h
E|--13----13--13-13-13-13----11--11-10---|-------------------10vvv-----------|
B|--11----11--11-11-11-11-----------11---|-13----Xp11----13--11vvv-----------|
G|-(10)----------------10-----------10---|---------------10--10vvv-----------|
D|---------------------------------------|-----------------------------------|
A|---------------------------------------|-----------------------------------|
E|---------------------------------------|-----------------------------------|

 |
 |Guitar 1
 |
 | Gm            F               Bb(sus2)                   C(sus2)
 |
 | e   s s s s s s e   s s s s s s    e   s s s s s s e   s s e   s s
E|-3---3-3-3-3-3-1-1---1-1-1-1-1-1--|-1---1-1---1---1-1---X-3-3-----3-|
B|-3---3-3-3-3-3-1-1---1-1-1-1-1-1--|-1---1-1---1---1-1---X-3-3---3-3-|
G|-3---3-3-3-3-3-2-2---2-2-2-2-2-3--|-3---3-3-3-3-3-3-3---X-5-5---5-5-|
D|-5---5---5---5---3---3---3---3-3--|-3---3---3---3---3-------5---5---|
A|-5---5---5---5---3---3---3---3----|-1---1---1---1---1-------3---3---|
E|-3---3---3---3---1---1---1---1----|---------------------------------|
 |
 |Guitar 3
 | E     s+s s s s E     s+s s s s    Q           e   h
E|-3-----3---3-3-1-5-----5---5------|---------------------------------|
B|-3-----3---3-3-1-6-----6---6------|-11----------11--11--------------|
G|-----------------0-----------7/10-|-10----------10--10--------------|
D|----------------------------------|---------------------------------|
A|----------------------------------|---------------------------------|
E|----------------------------------|---------------------------------|

 |
 |Guitar 1
 |
 | Gm              F(addG)/A         Eb
 |
 | e   s s s s s s s s s s s s s s   s s s s s s s s s s s s s s s s
E|-3---3-3-3-3-3-3-3-3-3-3-3-3-X-1-|-3-3---3-3-3-3-3---3---3---3---3-|
B|-3---3-3-3-3-3-3-6-6-6-6-6-6-X-1-|-4-4-4-4-4-4-4-4-4-4-4-4-4-4-4-4-|
G|-3---3-3-3-3-3-3-5-5-5-5-5-5-X-2-|-3-3-3-3-3-3-3-3-3-3-3-3-3-3-3-3-|
D|-5---5---5---5---3---3---3---X---|-1---1---1---1---1---1---1---1---|
A|-5---5---5---5-------------------|---------------------------------|
E|-3---3---3---3---5---5---5-------|---------------------------------|
 |
 |Guitar 3
 | E     s+e   e   E     s+e   e     E     s+s s  e   h
E|-------10----10--10--------------|-15---------------15vvv----------|
B|-------11----11--11----10--------|-16----15-----15--16vvv----------|
G|-10----10--------10----10--------|-15----15--15-15--15vvv----------|
D|-10--------------------10----13\-|---------------------------------|
A|---------------------------------|---------------------------------|
E|---------------------------------|---------------------------------|
                                   |                     Guitar 3 out
                                   |Guitar 3 (Overdub)
                                   | E     s+s s  e   h
                                  E|------------------6vvv-----------|
                                  B|-8-----8------8---8vvv-----------|
                                  G|-8-----7---8--8---8vvv-----------|
                                  D|---------------------------------|
                                  A|---------------------------------|
                                  E|---------------------------------|
                                                         Guitar 3 out

 |
 |Guitar 1
 |
 | Gm            F               Bb(sus2)
 |
 | e   s s s s s s e   s s s s s s   e   s s s s s s e   s s s s s s
E|-3---3-3-3-3-3-1-1---1-1-1-1-1-1-|-1---1-1---1---1-1---1-1---1---X-|
B|-3---3-3-3-3-3-1-1---1-1-1-1-1-1-|-1---1-1---1---1-1---1-1---1---X-|
G|-3---3-3-3-3-3-2-2---2-2-2-2-2-3-|-3---3-3-3-3-3-3-3---3-3-3-3-3-X-|
D|-5---5---5---5---3---3---3---3-3-|-3---3---3---3---3---3---3---3---|
A|-5---5---5---5---3---3---3---3---|-1---1---1---1---1---1---1---1---|
E|-3---3---3---3---1---1---1---1---|---------------------------------|
 |
 |Guitar 3
 |
 | Gm              F                 Bb(sus2)
 |
 | h               h                 w
E|-3---------------1---------------|-1-------------------------------|
B|-3---------------1---------------|-1-------------------------------|
G|-3---------------2---------------|-3-------------------------------|
D|-5---------------3---------------|-3-------------------------------|
A|-5---------------3---------------|-1-------------------------------|
E|-3---------------1---------------|---------------------------------|

 |
 |Guitar 1
 |
 | Gm              F(addG)/A         Dm              C(sus2)
 |
 | e   s s s s s s s s s s s s s s   e   s s s s s s e   s s s s s s
E|-3---3-3-3-3-3-3-3-3-3-3-3-3-X-1-|-------5---5-----------3---3-----|
B|-3---3-3-3-3-3-3-6-6-6-6-6-6-X-1-|-6---6-6---6-----3---3-3---3-3\1-|
G|-3---3-3-3-3-3-3-5-5-5-5-5-5-X-2-|-7---7-7-7-7-7-5-5---5-5-5-5-5\3-|
D|-5---5---5---5---3---3---3---X---|-7---7-7-7-7-7-5-5---5-5-5---5\3-|
A|-5---5---5---5-------------------|-5---5---5---5-5-3---3---3---3\1-|
E|-3---3---3---3---5---5---5-------|---------------------------------|
 |
 |Guitar 3
 |
 | Gm              F(addG)/A         Dm              C(sus2)
 |
 | h               h                 h               h
E|-3---------------3---------------|-5---------------3---------------|
B|-3---------------6---------------|-6---------------3---------------|
G|-3---------------5---------------|-7---------------5---------------|
D|-5---------------3---------------|-7---------------5---------------|
A|-5-------------------------------|-5---------------3---------------|
E|-3---------------5---------------|---------------------------------|

 |
 |Guitar 1
 |
 | Bb(sus2)
 |
 | w                                  w
E|-1-------------------------------|-(1)-----------------------------|
B|-1-------------------------------|-(1)-----------------------------|
G|-3-------------------------------|-(3)-----------------------------|
D|-3-------------------------------|-(3)-----------------------------|
A|-1-------------------------------|-(1)-----------------------------|
E|---------------------------------|---------------------------------|
 |                                                       Guitar 1 out
 |Guitar 3
 |
 | Bb(sus2)
 |
 | w                                  w
E|-1-------------------------------|-(1)-----------------------------|
B|-1-------------------------------|-(1)-----------------------------|
G|-3-------------------------------|-(3)-----------------------------|
D|-3-------------------------------|-(3)-----------------------------|
A|-1-------------------------------|-(1)-----------------------------|
E|---------------------------------|---------------------------------|
                                                         Guitar 3 out

 |
 |Guitar 2
 |
 | Dm                                C(sus2)
 |
 | E     s e   e   E     s e   s s   Q           e   q       e   e
E|-5---------------5-------5-------|-3---------------3---------------|
B|-6-------6-------6-------6-------|-3-----------3---3-------3-------|
G|-7-------7-------7-------7-------|-5-----------5---5-------5-------|
D|-7-------7-------7-------7---7\5-|-5-----------5---5-------5---5-\-|
A|-5-----5-5---0---5-----0-5-------|-3-----------3---3-------3---3-\-|
D|-0-----------0-------------------|---------------------------------|

 |
 |Guitar 2
 |
 | A5              Am                G5
 |
 | Q           e   Q           s s   Q           e   q       q
E|-----------------5---------------|---------------------------------|
B|-----------------5---------------|-3-----------3---3-------3---\---|
G|-----------------5---------------|-0-----------0---0-------0-------|
D|-2-------------------------------|-0-----------0---0-------0-------|
A|-0-----------7---------------7\5-|-5-----------5---5-------5---\---|
D|-------------7---------------7\5-|-5-----------5---5-------5---\---|

 |
 |Guitar 2
 |
 | F                                 Dm
 |
 | E     s e   e   q       E     s   E     s e   e   E     s e   s s
E|-1-----------1---1-------1-------|-5---------------5-------5-------|
B|-1-----------1---1-------1-------|-6-------6-------6-------6-------|
G|-2-----------2---2-------2-------|-7-------7-------7-------7-------|
D|-3-----------3---3-------3-------|-7-------7-------7-------7---7\5-|
A|---------------------------------|-5-----5-5---0---5-----0-5-------|
D|-3-----3-3---3---3-------3-----3-|-0-----------0-------------------|

 |
 |Guitar 2
 |
 | C(sus2)                           G
 |
 | Q           e   q       q         q+s       s e   e   e   e   e
E|-3---------------3-------3-------|---------------------------------|
B|-3-----------3---3-------3-------|-----------------------------3---|
G|-5-----------5---5-------5-------|-4---------------4---4---4---4---|
D|-5-----------5---5-------5-------|-5-----------5---5---5---5---5---|
A|-3-----------3---3-------3-------|-5-----------5---5---5---5---5---|
D|---------------------------------|-5---------5-----5---5---5-------|

 |
 |Guitar 2
 |
 | Dm                                C(sus2)
 |
 | E     s e   e   E     s e   s s   Q           e   q       e   e
E|-5---------------5-------5-------|-3---------------3---------------|
B|-6-------6-------6-------6-------|-3-----------3---3-------3-------|
G|-7-------7-------7-------7-------|-5-----------5---5-------5---5-\-|
D|-7-------7-------7-------7---7\5-|-5-----------5---5-------5---3-\-|
A|-5-----5-5---0---5-----0-5-------|-3-----------3---3-------3-------|
D|-0-----------0-------------------|---------------------------------|

 |
 |Guitar 2
 |
 | A5              Am                G5
 |
 | Q           e   Q           s s   Q           e   q       q
E|-----------------5---------------|---------------------------------|
B|-----------------5---------------|-3-----------3---3-------3---\---|
G|-----------------5---------------|-0-----------0---0-------0-------|
D|-2-------------------------------|-0-----------0---0-------0-------|
A|-0-----------7---------------7\5-|-5-----------5---5-------5---\---|
D|-------------7---------------7\5-|-5-----------5---5-------5---\---|

 |
 |Guitar 2
 |
 | F                                 Dm
 |
 | E     s e   e   q       E     s   E     s e   e   E     s e   s s
E|-1-----------1---1-------1-------|-5---------------5-------5-------|
B|-1-----------1---1-------1-------|-6-------6-------6-------6-------|
G|-2-----------2---2-------2-------|-7-------7-------7-------7-------|
D|-3-----------3---3-------3-------|-7-------7-------7-------7---7\5-|
A|---------------------------------|-5-----5-5---0---5-----0-5-------|
D|-3-----3-3---3---3-------3-----3-|-0-----------0-------------------|

 |
 |Guitar 2
 |
 | C(sus2)                           Am              G
 |
 | Q           e   Q       e   e     h               Q+s           s
E|-3---------------3---------------|-5---------------3---------------|
B|-3-----------3---3-------3-------|-5---------------3---------------|
G|-5-----------5---5-------5-------|-5---------------4---------------|
D|-5-----------5---5-------5---5-\-|-7---------------5---------------|
A|-3-----------3---3-------3---3-\-|-7---------------5---------------|
D|---------------------------------|-7---------------5------------/7-|

 |
 |Guitar 2
 |
 | Dm                                C(sus2)
 |
 | q       e   e   h                 E     s e   e   q       e   e
E|-5-------5---5---5---------------|-----------------3-------3-------|
B|-6-------6---6---6---------------|-3-------3-------3-------3-------|
G|-7-------7---7---7---------------|-5-------5-------5-------5-------|
D|-7-------7---7---7---------------|-5-------5---5---5-------5---5---|
A|-5-------5-------5---------------|-3-----3-3---3---3-------3-------|
D|-0---------------0---------------|-------------5-------------------|

 |
 |Guitar 2
 |
 | G5                                F
 |
 | Q           e   q       q         Q           e   s s e   q
E|---------------------------------|-1-----------1---1-1-1---1-------|
B|-----------------3-------3-------|-1-----------1---1-1-1---1-------|
G|-0-----------0---0-------0-------|-2-----------2---2-2-2---2-------|
D|-0-----------0---0-------0-------|-3-----------3---3-3-3---3-------|
A|-5-----------5---5-------5-------|---------------------------------|
D|-5-----------5---5-------5-------|-3-----------3---3---3---3-------|

 |
 |Guitar 2
 |
 | Dm                                C(sus2)
 |
 | E     s e   e   E     s e   s s   Q           e   q       e   e
E|-5---------------5-------5-------|-3---------------3---------------|
B|-6-------6-------6-------6-------|-3-----------3---3-------3-------|
G|-7-------7-------7-------7-------|-5-----------5---5-------5-------|
D|-7-------7-------7-------7---7\5-|-5-----------5---5-------5---5-\-|
A|-5-----5-5---0---5-----0-5-------|-3-----------3---3-------3---3-\-|
D|-0-----------0-------------------|---------------------------------|

 |
 |Guitar 2
 |
 | G5                                Dm
 |
 | Q           e   q       q         E     s e   e   E     s e   s s
E|---------------------------------|-5---------------5-------5-------|
B|-3-----------3---3-------3---\---|-6-------6-------6-------6-------|
G|-0-----------0---0-------0-------|-7-------7-------7-------7-------|
D|-0-----------0---0-------0-------|-7-------7-------7-------7---7\5-|
A|-5-----------5---5-------5---\---|-5-----5-5---0---5-----0-5-------|
D|-5-----------5---5-------5---\---|-0-----------0-------------------|

 |
 |Guitar 2
 |
 | C(sus2)                           A5              Am
 |
 | Q           e   q       e   e     Q           e   Q           s s
E|-3---------------3---------------|-----------------5---------------|
B|-3-----------3---3-------3-------|-----------------5---------------|
G|-5-----------5---5-------5-------|-----------------5---------------|
D|-5-----------5---5-------5---5-\-|-2-------------------------------|
A|-3-----------3---3-------3---3-\-|-0-----------7---------------7\5-|
D|---------------------------------|-------------7---------------7\5-|

 |
 |Guitar 2
 |
 | G5                                F
 |
 | Q           e   q       q         E     s e   e   q       E     s
E|---------------------------------|-1-----------1---1-------1-------|
B|-3-----------3---3-------3---\---|-1-----------1---1-------1-------|
G|-0-----------0---0-------0-------|-2-----------2---2-------2-------|
D|-0-----------0---0-------0-------|-3-----------3---3-------3-------|
A|-5-----------5---5-------5---\---|---------------------------------|
D|-5-----------5---5-------5---\---|-3-----3-3---3---3-------3-----3-|

 |
 |Guitar 2
 |
 | Dm                                C(sus2)
 |
 | E     s e   e   E     s e   s s   Q           e   q       e   e
E|-5---------------5-------5-------|-3---------------3---------------|
B|-6-------6-------6-------6-------|-3-----------3---3-------3-------|
G|-7-------7-------7-------7-------|-5-----------5---5-------5-------|
D|-7-------7-------7-------7---7\5-|-5-----------5---5-------5---5---|
A|-5-----5-5---0---5-----0-5-------|-3-----------3---3-------3---3---|
D|-0-----------0-------------------|---------------------------------|
                                                           Start fade

 |
 |Guitar 2
 |
 | G5                                Dm
 |
 | Q           e   q       q         E     s e   e   E     s e   s s
E|---------------------------------|-5---------------5-------5-------|
B|-3-----------3---3-------3---\---|-6-------6-------6-------6-------|
G|-0-----------0---0-------0-------|-7-------7-------7-------7-------|
D|-0-----------0---0-------0-------|-7-------7-------7-------7---7\5-|
A|-5-----------5---5-------5---\---|-5-----5-5---0---5-----0-5-------|
D|-5-----------5---5-------5---\---|-0-----------0-------------------|

 |
 |Guitar 2
 |
 | C(sus2)                           A5              Am
 |
 | Q           e   q       e   e     Q           e   Q           s s
E|-3---------------3---------------|-----------------5---------------|
B|-3-----------3---3-------3-------|-----------------5---------------|
G|-5-----------5---5-------5-------|-----------------5---------------|
D|-5-----------5---5-------5---5-\-|-2-------------------------------|
A|-3-----------3---3-------3---3-\-|-0-----------7---------------7\5-|
D|---------------------------------|-------------7---------------7\5-|

 |
 |Guitar 2
 |
 | G5                                F
 |
 | Q           e   q       q         E     s e   e   q       E     s
E|---------------------------------|-1-----------1---1-------1-------|
B|-3-----------3---3-------3---\---|-1-----------1---1-------1-------|
G|-0-----------0---0-------0-------|-2-----------2---2-------2-------|
D|-0-----------0---0-------0-------|-3-----------3---3-------3-------|
A|-5-----------5---5-------5---\---|---------------------------------|
D|-5-----------5---5-------5---\---|-3-----3-3---3---3-------3-----3-|
                                                             Fade out


Tablature Explanation

()      - Ghost Note
/       - Slide Down
\       - Slide Up
p       - Pull Off
h       - Hammer On
vvv     - Vibrato With Bar
X       - Left Hand Muting


Notation

w - Whole
h - Half
q - Quarter
e - 8th
s - 16th
t - 32th
x - 64th

Capital durations are dotted notes.