Rush: Jacob's Ladder
From the album Permanent Waves (Mercury Records)
Copyright 1980 Core Music Publishing
Music by Lee and Lifeson
Lyrics by Peart

Comments/corrections to Branden Robinson 

Transcribed by Tony Kennedy

Ok, i think there is a version out there somewhere of this but i didn't see
it on the web site.  So here it is.  I think the solo is pretty close.  But
if anybody has any suggestions, lemme know.


    C
E---||-----0--------0--------|------------------------------
B---||--1--------1-----1-----|------------------------------
G---||--------0-----------0--|------------------------------
D---||-----------------------|------------------------------
A---||-----------------------|------------------------------
E---||-----------------------|------------------------------


    Ab                         F
E---------------4-----------|--------------1--------|-------
B------------------4--------|-----------------1-----|-------
G------------5--------5-----|-----------2--------2--|-------
D---------6--------------6--|--------3--------------|-------
A------6--------------------|-----3-----------------|-------
E---4-----------------------|--1--------------------|-------


    G                          Ab
E---------------3-----------|--------------4--------|-------
B------------------3--------|-----------------4-----|-------
G------------4--------4-----|-----------5--------5--|-------
D---------5--------------5--|--------6--------------|-------
A------5--------------------|-----6-----------------|-------
E---3-----------------------|--4--------------------|-------


    E                          C
E---------------0-----------|----------------8--------|-----
B------------------0--------|-------------------8-----|-----
G------------1--------1-----|-------------9--------9--|-----
D---------2--------------2--|---------10--------------|-----
A------2--------------------|-----10------------------|-----
E---0-----------------------|--8----------------------|-----


    Ab                         F
E---------------4-----------|-----------------------|-------
B------------------4--------|--------------0--------|-------
G------------5--------5-----|-----------2-----2-----|-------
D---------6--------------6--|--------3-----------3--|-------
A------6--------------------|-----3-----------------|-------
E---4-----------------------|--1--------------------|-------


    G                          Ab
E---------------3-----------|--------------4--------|-------
B------------------3--------|-----------------4-----|-------
G------------4--------4-----|-----------5--------5--|-------
D---------5--------------5--|--------6--------------|-------
A------5--------------------|-----6-----------------|-------
E---3-----------------------|--4--------------------|-------


    E                          C
E---------------0-----------|-----------------------|-------
B------------------0--------|-----------------------|-------
G------------1--------1-----|-----------------------|-------
D---------2--------------2--|-----------------------|-------
A------2--------------------|--3--3--3--3--3--3--3--|-------
E---0-----------------------|-----------------------|-------



E---------------------------|-------------------------------
B---------------------------|-------------------------------
G---------------------------|-------------------------------
D---------------------------|-------------------------------
A---3--3--3--3--3--3--3--3--|-------------------------------
E---------------------------|-------------------------------


    (Repeat until "are rumblin in a..."       F  G
E------------------------------------------|--------|-------
B------------------------------------------|--------|-------
G------------------------------------------|--------|-------
D------------------------------------------|--3--5--|-------
A---3--3--3--3--3--3-----------------------|--3--5--|-------
E------------------------------------------|--1--3--|-------


    Ab      Bsus4       Cmaj7        F#7sus4
E------||---------0--|--------0---|--------0--|-------------
B------||---------0--|--------0---|--------0--|-------------
G------||*--------9--|--------9---|--------3--|-------------
D---6--||*--------9--|--------10--|--------4--|-------------
A---6--||---------9--|--------10--|--------4--|-------------
E---4--||---7--7--7--|--8--8--8---|--2--2--2--|-------------


    G6
E---------0---||--------------------------------------------
B---------0---||--------------------------------------------
G---------3--*||--------------------------------------------
D---------5--*||--------------------------------------------
A---------5---||--------------------------------------------
E---3--3--3---||--------------------------------------------



E---------------2--------2-----------9--7--6--7--9--10------
B------------3-----5--3-----5--3--5-------------------------
G---------2-------------------------------------------------
D------0----------------------------------------------------
A---2-------------------------------------------------------
E-----------------------------------------------------------



E---9------9--10--12--14--14--14^--14--14--12------17^------
B------12--------------------------------------15-----------
G-----------------------------------------------------------
D-----------------------------------------------------------
A-----------------------------------------------------------
E-----------------------------------------------------------



E--------14--------------12--14--12h1p12--10--10h12p10------
B---15^------15--14--12-------------------------------------
G-----------------------------------------------------------
D-----------------------------------------------------------
A-----------------------------------------------------------
E-----------------------------------------------------------


                 pinch h
E---h12--10----------|--------------------------------------
B------------12--12--|--------------------------------------
G--------------------|--------------------------------------
D--------------------|--------------------------------------
A--------------------|--------------------------------------
E--------------------|--------------------------------------



E-----------------------------------|-----------------------
B-------10--10----------7-----------|-----------------------
G---9^----------9--7h9-----------6--|-----------------------
D--------------------------7--9-----|-----------------------
A-----------------------------------|-----------------------
E-----------------------------------|-----------------------



E---------------2--------2-----------9--7--6--7--9--10------
B------------3-----5--3-----5--3--5-------------------------
G---------2-------------------------------------------------
D------0----------------------------------------------------
A---2-------------------------------------------------------
E-----------------------------------------------------------



E---9------9--10--12--|-------------------------------------
B------12-------------|-------------------------------------
G---------------------|-------------------------------------
D---------------------|-------------------------------------
A---------------------|-------------------------------------
E---------------------|-------------------------------------



E---------------2--------2-----------9--7--6--7--9--10------
B------------3-----5--3-----5--3--2-------------------------
G---------2-------------------------------------------------
D------0----------------------------------------------------
A---2-------------------------------------------------------
E-----------------------------------------------------------


                         Bsus4       Cmaj7
E---9------9--10--12--|--------0--|--------0----------------
B------12-------------|--------0--|--------0----------------
G---------------------|--------9--|--------9----------------
D---------------------|--------9--|--------10---------------
A---------------------|--------9--|--------10---------------
E---------------------|--7--7--7--|--8--8--8----------------


         F#             G  E     F#             G  E
E---||------------------------|-----------------------|-----
B---||------------------------|-----------------------|-----
G---||*-----------------------|-----------------------|-----
D---||*--4--4--4--4--4--5--2--|--4--4--4--4--4--5--2--|-----
A---||---4--4--4--4--4--5--2--|--4--4--4--4--4--5--2--|-----
E---||---2--2--2--2--2--3--0--|--2--2--2--2--2--3--0--|-----


    B              C   A
E-------------------------|---------------------------------
B-------------------------|---------------------------------
G-------------------------|---------------------------------
D---9--9--9--9--9--10--7--|---------------------------------
A---9--9--9--9--9--10--7--|---------------------------------
E---7--7--7--7--7--8---5--|---------------------------------


    B              C   A  G       F#             A  E
E-----------------------------||-----------------------|----
B-----------------------------||-----------------------|----
G----------------------------*||-----------------------|----
D---9--9--9--9--9--10--7--5--*||--4--4--4--4--4--5--2--|----
A---9--9--9--9--9--10--7--5---||--4--4--4--4--4--5--2--|----
E---7--7--7--7--7--8---5--3---||--2--2--2--2--2--3--0--|----


    F#             A  E     D
E------------------------|-----------------------|----------
B------------------------|-----------------------|----------
G------------------------|--7--7--7--7--7--7--7--|----------
D---4--4--4--4--4--5--2--|--7--7--7--7--7--7--7--|----------
A---4--4--4--4--4--5--2--|--5--5--5--5--5--5--5--|----------
E---2--2--2--2--2--3--0--|-----------------------|----------


                                              4x
E------------------------||-------------------||------------
B------------------------||-------------------||------------
G---7--7--7--7--7--7--7--||*--7--7--7--7--7--*||------------
D---7--7--7--7--7--7--7--||*--7--7--7--7--7--*||------------
A---5--5--5--5--5--5--5--||---5--5--5--5--5---||------------
E------------------------||-------------------||------------


    Tacet while synth plays
E-----------------------------------------------------------
B-----------------------------------------------------------
G-----------------------------------------------------------
D-----------------------------------------------------------
A-----------------------------------------------------------
E-----------------------------------------------------------


         D
E---||---------------------|-----------------------|--------
B---||---------------------|-----------------------|--------
G---||*--------4--------7--|--------4--------7-----|--------
D---||*-----7-----5--4-----|-----7-----5--4-----7--|--------
A---||---5-----------------|--5--------------------|--------
E---||---------------------|-----------------------|--------



E---------------------|-----------------------|-------------
B---------------------|-----------------------|-------------
G---------4--------7--|--------4--------7-----|-------------
D------7-----5--4-----|-----7-----5--4-----7--|-------------
A---5-----------------|--5--------------------|-------------
E---------------------|-----------------------|-------------


    F#
E---------------------|-----------------------|--|----------
B---------------------|-----------------------|--|----------
G---------------------|-----------------------|--|----------
D---------1--------4--|--------1--------4-----|--|----------
A------4-----2--1-----|-----4-----2--1-----4--|--|----------
E---2-----------------|--2--------------------|--|----------



E---------------------|------------------------||-----------
B---------------------|------------------------||-----------
G---------------------|-----------------------*||-----------
D---------1--------4--|--------1--------4-----*||-----------
A------4-----2--1-----|-----4-----2--1-----4---||-----------
E---2-----------------|--2---------------------||-----------


    D
E---------------------|-----------------------|-------------
B---------------------|-----------------------|-------------
G---------4--------7--|--------6--------9-----|-------------
D------7-----5--4-----|-----9-----7--6-----9--|-------------
A---5-----------------|--7--------------------|-------------
E---------------------|-----------------------|-------------


    F#
E---------------------|-----------------------|-------------
B---------------------|-----------------------|-------------
G---------------------|-----------------------|-------------
D---------1--------4--|--------1--------4-----|-------------
A------4-----2--1-----|-----4-----2--1-----4--|-------------
E---2-----------------|--2--------------------|-------------


    D                    E
E---------------------|-----------------------|-------------
B---------------------|-----------------------|-------------
G---------4--------7--|--------6--------9-----|-------------
D------7-----5--4-----|-----9-----7--6-----9--|-------------
A---5-----------------|--7--------------------|-------------
E---------------------|-----------------------|-------------


    F#
E---------------------------|--------------------|----------
B---------------------------|--------------------|----------
G---3--3--3--3--3--3--3--3--|--3--3--3--3--3--3--|----------
D---4--4--4--4--4--4--4--4--|--4--4--4--4--4--4--|----------
A---4--4--4--4--4--4--4--4--|--4--4--4--4--4--4--|----------
E---2--2--2--2--2--2--2--2--|--2--2--2--2--2--2--|----------



E---------------------------|--------------------|----------
B---------------------------|--------------------|----------
G---3--3--3--3--3--3--3--3--|--3--3--3--3--3--3--|----------
D---4--4--4--4--4--4--4--4--|--4--4--4--4--4--4--|----------
A---4--4--4--4--4--4--4--4--|--4--4--4--4--4--4--|----------
E---2--2--2--2--2--2--2--2--|--2--2--2--2--2--2--|----------



E------------------|----------------------------------------
B------------------|----------------------------------------
G---3--3--3--3--3--|----------------------------------------
D---4--4--4--4--4--|----------------------------------------
A---4--4--4--4--4--|----------------------------------------
E---2--2--2--2--2--|----------------------------------------



E---------------------------------------|-------------------
B---------------------------------------|-------------------
G---3--3--3--3--3--3--3--3--3--3--3--3--|-------------------
D---4--4--4--4--4--4--4--4--4--4--4--4--|-------------------
A---4--4--4--4--4--4--4--4--4--4--4--4--|-------------------
E---2--2--2--2--2--2--2--2--2--2--2--2--|-------------------


    A  Follow mens eyes...
E------5-----------------------|----------------------------
B------5-----------------------|----------------------------
G------6-----------------------|----------------------------
D------7-----------------------|----------------------------
A------7-----------------------|----------------------------
E------5-----------------------|----------------------------


          B  look to the skies
E------------7--------------------|-------------------------
B------------7--------------------|-------------------------
G------------8--------------------|-------------------------
D------------9--------------------|-------------------------
A------------9--------------------|-------------------------
E------------7--------------------|-------------------------


    F# shifting shafts..       E  shining weave..
E------2--------------------|-----0-----------------|-------
B------2--------------------|-----0-----------------|-------
G------3--------------------|-----1-----------------|-------
D------4--------------------|-----2-----------------|-------
A------4--------------------|-----2-----------------|-------
E------2--------------------|-----0-----------------|-------


    fabric..
E---------2--2--|--0--||------------------------------------
B---2--2--3--3--|--2--||------------------------------------
G---2--2--2--2--|--2--||------------------------------------
D---2--2--0--0--|--2--||------------------------------------
A---4--4--------|--0--||------------------------------------
E---------------|-----||------------------------------------