Rush: Entre Nous
From the album Permanent Waves (Mercury Records)
Copyright 1980 Core Music Publishing
Music by Lee and Lifeson
Lyrics by Peart

Comments/corrections to Branden Robinson 

Tabbed by Tony Kennedy 

This song sounds really great, and there's no wild solo to learn.

I think the chords in the chorus are correct, but they are kind of
odd, sus and add2 things.  So if anybody has anything that sounds better.
You know what to do.

The bar lines have absolutely not correspondence to any timing whatsoever.
I just stick them in there to break things up.

The chorus has a lot of overdubbed guitars, 12 string and such, so it's hard to
get it to sound good on a single 6 string.  I've been working it out on
acoustic and I play it different from this because I'm putting in some bass
notes too.  Anyway, I think this is how it goes.

||--------------------------------------------------|-----------------
||--2--------4--------5--------4--------4--2--------|-----------------
||-----2--------2--------2--------2-----------2-----|-----------------
||--------2--------2--------2--------2-----------2--|-----------------
||--------------------------------------------------|-----------------
||--------------------------------------------------|-----------------



------------------------------------------------|---------------------
2--------4--------5--------4--------4--2--------|---------------------
---2--------2--------2--------2-----------2-----|---------------------
------2--------2--------2--------2-----------2--|---------------------
------------------------------------------------|---------------------
------------------------------------------------|---------------------



------------------------------------------------|---------------------
4--------5--------7--------5--------5--4--------|---------------------
---4--------4--------4--------4-----------4-----|---------------------
------4--------4--------4--------4-----------4--|---------------------
------------------------------------------------|---------------------
------------------------------------------------|---------------------



------------------------------------------------|---------------------
4--------5--------7--------5--------5--4--------|---------------------
---4--------4--------4--------4-----------4-----|---------------------
------4--------4--------4--------4-----------4--|---------------------
------------------------------------------------|---------------------
------------------------------------------------|---------------------



------------------------------------------------|---------------------
2--------4--------5--------4--------4--2--------|---------------------
---2--------2--------2--------2-----------2-----|---------------------
------2--------2--------2--------2-----------2--|---------------------
------------------------------------------------|---------------------
------------------------------------------------|---------------------



------------------------------------------------|---------------------
2--------4--------5--------4--------4--2--------|---------------------
---2--------2--------2--------2-----------2-----|---------------------
------2--------2--------2--------2-----------2--|---------------------
------------------------------------------------|---------------------
------------------------------------------------|---------------------



------------------------------------------------|---------------------
4--------5--------7--------5--------5--4--------|---------------------
---4--------4--------4--------4-----------4-----|---------------------
------4--------4--------4--------4-----------4--|---------------------
------------------------------------------------|---------------------
------------------------------------------------|---------------------


                                                   A
------------------------4-----------------------|-----------|---------
4--------5--------7-----------7-----5--4--------|--2--2--2--|---------
---4--------4--------4-----4--4-----------4-----|--2--2--2--|---------
------4--------4-----------------4-----4-----4--|--2--2--2--|---------
------------------------------------------------|--0--0--0--|---------
------------------------------------------------|-----------|---------


D           E           A           D           A
---------|-----------|-----------|-----------|-----------|------------
3--3--3--|--5--5--5--|--2--2--2--|--3--3--3--|--2--2--2--|------------
2--2--2--|--4--4--4--|--2--2--2--|--2--2--2--|--2--2--2--|------------
4--4--4--|--6--6--6--|--2--2--2--|--4--4--4--|--2--2--2--|------------
5--5--5--|--7--7--7--|--0--0--0--|--5--5--5--|--0--0--0--|------------
---------|-----------|-----------|-----------|-----------|------------


D           E           A           D           A  G  D
---------|-----------|-----------|-----------|--0--3--2--|--|---------
3--3--3--|--5--5--5--|--2--2--2--|--3--3--3--|--2--3--3--|--|---------
2--2--2--|--4--4--4--|--2--2--2--|--2--2--2--|--2--0--2--|--|---------
4--4--4--|--6--6--6--|--2--2--2--|--4--4--4--|--2--0--0--|--|---------
5--5--5--|--7--7--7--|--0--0--0--|--5--5--5--|--0--2-----|--|---------
---------|-----------|-----------|-----------|-----3-----|--|---------


A           D           E           A
---------|-----------|-----------|-----------|------------------------
2--2--2--|--3--3--3--|--5--5--5--|--2--2--2--|------------------------
2--2--2--|--2--2--2--|--4--4--4--|--2--2--2--|------------------------
2--2--2--|--4--4--4--|--6--6--6--|--2--2--2--|------------------------
0--0--0--|--5--5--5--|--7--7--7--|--0--0--0--|------------------------
---------|-----------|-----------|-----------|------------------------


(Strum fast, with echo?)      A           D           E
10-----10-----10-----------|-----------|-----------|-----------|------
10-----10-----10-----------|--2--2--2--|--3--3--3--|--5--5--5--|------
11-----11-----11-----------|--2--2--2--|--2--2--2--|--4--4--4--|------
12-----12-----12-----------|--2--2--2--|--4--4--4--|--6--6--6--|------
12-----12-----12-----------|--0--0--0--|--5--5--5--|--7--7--7--|------
10-----10-----10-----------|-----------|-----------|-----------|------


A           D           A  G  D     Just between..
---------|-----------|--0--3--2--|--5--------7--------8-----|---------
2--2--2--|--3--3--3--|--2--3--3--|--------------------------|---------
2--2--2--|--2--2--2--|--2--0--2--|-----7--------7--------7--|---------
2--2--2--|--4--4--4--|--2--0--0--|--------7--------7--------|---------
0--0--0--|--5--5--5--|--0--2-----|--------------------------|---------
---------|-----------|-----3-----|--------------------------|---------


C                 G  Cadd9 G
0--------3--|-----3--0--0--3--|--5--------7--------8-----|------------
1--------0--|-----0--3--3--0--|--------------------------|------------
0--------0--|-----0--0--0--0--|-----7--------7--------7--|------------
2--------0--|-----0--2--2--0--|--------7--------7--------|------------
3--------2--|-----2--3--3--2--|--------------------------|------------
---------3--|-----3--------3--|--------------------------|------------


C  C     Dsus2 G     G     Just Between us..
0--0--|--0-----3-----3--|--5--------7--------8-----|------------------
1--1--|--3-----0-----0--|--------------------------|------------------
0--0--|--2-----0-----0--|-----7--------7--------7--|------------------
2--2--|--0-----0-----0--|--------7--------7--------|------------------
3--3--|--------2-----2--|--------------------------|------------------
------|--------3-----3--|--------------------------|------------------


C                 G  Cadd9    Spaces in between...       C
0--------3--|-----3--0--0--|--5--------7--------8-----|--0--|---------
1--------0--|-----0--3--3--|--------------------------|--1--|---------
0--------0--|-----0--0--0--|-----7--------7--------7--|--0--|---------
2--------0--|-----0--2--2--|--------7--------7--------|--2--|---------
3--------2--|-----2--3--3--|--------------------------|--3--|---------
---------3--|-----3--------|--------------------------|-----|---------


Csus2    Csus2
3--5--|--3--5--3--|---------------------------------------------------
3--7--|--3--3--3--|---------------------------------------------------
5--7--|--5--2--0--|---------------------------------------------------
5--7--|--5--0--0--|---------------------------------------------------
3--5--|--3-----2--|---------------------------------------------------
------|--------3--|---------------------------------------------------



------------------------------------------------|---------------------
2--------4--------5--------4--------4--2--------|---------------------
---2--------2--------2--------2-----------2-----|---------------------
------2--------2--------2--------2--------------|---------------------
------------------------------------------------|---------------------
------------------------------------------------|---------------------



---------------------------------------------|------------------------
2--------4--------5--------4--------4--2-----|------------------------
---2--------2--------2--------2-----------2--|------------------------
------2--------2--------2--------2-----------|------------------------
---------------------------------------------|------------------------
---------------------------------------------|------------------------


   We are strangers to eachother
------------------|-----------------|-----------------|---------------
------------2-----|-----------3-----|-----------5-----|---------------
---------2-----2--|--------2-----3--|--------4-----4--|---------------
------2-----------|-----4-----------|-----6-----------|---------------
---0--------------|--5--------------|--7--------------|---------------
------------------|-----------------|-----------------|---------------



---------------|-----------------|-----------------|------------------
---------2-----|-----------3-----|-----------2-----|------------------
------2-----2--|--------2-----3--|--------2-----2--|------------------
---2-----------|-----4-----------|-----2-----------|------------------
0--------------|--5--------------|--0--------------|------------------
---------------|-----------------|-----------------|------------------



---------------|-----------------|-----------------|------------------
---------3-----|-----------5-----|-----------2-----|------------------
------2-----3--|--------4-----4--|--------2-----2--|------------------
---4-----------|-----6-----------|-----2-----------|------------------
5--------------|--7--------------|--0--------------|------------------
---------------|-----------------|-----------------|------------------


                  A  G  D     Just between..
---------------|--0--3--2--|--5--------7--------8-----|---------------
---------3-----|--2--3--3--|--------------------------|---------------
------2-----3--|--2--0--2--|-----7--------7--------7--|---------------
---4-----------|--2--0--0--|--------7--------7--------|---------------
5--------------|--0--2-----|--------------------------|---------------
---------------|-----3-----|--------------------------|---------------


C                 G  Cadd9 G
0--------3--|-----3--0--0--3--|--5--------7--------8-----|------------
1--------0--|-----0--3--3--0--|--------------------------|------------
0--------0--|-----0--0--0--0--|-----7--------7--------7--|------------
2--------0--|-----0--2--2--0--|--------7--------7--------|------------
3--------2--|-----2--3--3--2--|--------------------------|------------
---------3--|-----3--------3--|--------------------------|------------


C  C     Dsus2 G     Just Between us..          C
0--0--|--0-----3--|--5--------7--------8-----|--0--------3--|---------
1--1--|--3-----0--|--------------------------|--1--------0--|---------
0--0--|--2-----0--|-----7--------7--------7--|--0--------0--|---------
2--2--|--0-----0--|--------7--------7--------|--2--------0--|---------
3--3--|--------2--|--------------------------|--3--------2--|---------
------|--------3--|--------------------------|-----------3--|---------


   G  Cadd9    Spaces in between...       C     Csus2
---3--0--0--|--5--------7--------8-----|--0--|--3--5--|---------------
---0--3--3--|--------------------------|--1--|--3--7--|---------------
---0--0--0--|-----7--------7--------7--|--0--|--5--7--|---------------
---0--2--2--|--------7--------7--------|--2--|--5--7--|---------------
---2--3--3--|--------------------------|--3--|--3--5--|---------------
---3--------|--------------------------|-----|--------|---------------


Csus2
3--5--3--|-----------------------------------------------|------------
3--3--3--|--2--------4--------5--------4--------4--2-----|------------
5--2--0--|-----2--------2--------2--------2-----------2--|------------
5--0--0--|--------2--------2--------2--------2-----------|------------
3-----2--|-----------------------------------------------|------------
------3--|-----------------------------------------------|------------



---------------------------------------------|------------------------
4--------5--------7--------5--------5--4-----|------------------------
---4--------4--------4--------4-----------4--|------------------------
------4--------4--------4--------4-----------|------------------------
---------------------------------------------|------------------------
---------------------------------------------|------------------------



-------------------------------------------|--------------------------
5--------7--------8--7--------8--------10--|--------------------------
---4--------4-----------7--------7---------|--------------------------
------4--------4-----------7--------7------|--------------------------
-------------------------------------------|--------------------------
-------------------------------------------|--------------------------



----------------------------||------------2-----|---------------------
9--10--10--10--10--9--7-----||---4--4--5--------|---------------------
9------------------------9--||*--4--4--------4--|---------------------
9---------------------------||*--4--4-----------|---------------------
7---------------------------||---2--2-----------|---------------------
0---------------------------||------------------|---------------------



---------2-----|-----------2-----|-----------2-----|------------------
4--4--5--------|--4--4--5--------|--4--4--5--------|------------------
4--4--------4--|--4--4--------4--|--4--4--------4--|------------------
4--4-----------|--4--4-----------|--4--4-----------|------------------
2--2-----------|--2--2-----------|--2--2-----------|------------------
---------------|-----------------|-----------------|------------------


                                                            3x
----------------------------|-------------------------------||--------
9--10--10--10--10--9--7-----|--9--10--10--10--10--9--7------||--------
9------------------------9--|--9------------------------9--*||--------
9---------------------------|--9---------------------------*||--------
7---------------------------|--7----------------------------||--------
0---------------------------|--0----------------------------||--------



---------------------------------------------|------------------------
2--------3--------5--------4--------4--2-----|------------------------
---2--------2--------2--------2-----------2--|------------------------
------2--------2--------2--------2-----------|------------------------
---------------------------------------------|------------------------
---------------------------------------------|------------------------


                                                   A
---------------------------4--------5--------7--|-----------|---------
4--------5--------7-----------------------------|--2--2--2--|---------
---4--------4--------4--------4--------4--------|--2--2--2--|---------
------4--------4--------4--------4--------4-----|--2--2--2--|---------
------------------------------------------------|--0--0--0--|---------
------------------------------------------------|-----------|---------


D           E           A           D           A
---------|-----------|-----------|-----------|-----------|------------
3--3--3--|--5--5--5--|--2--2--2--|--3--3--3--|--2--2--2--|------------
2--2--2--|--4--4--4--|--2--2--2--|--2--2--2--|--2--2--2--|------------
4--4--4--|--6--6--6--|--2--2--2--|--4--4--4--|--2--2--2--|------------
5--5--5--|--7--7--7--|--0--0--0--|--5--5--5--|--0--0--0--|------------
---------|-----------|-----------|-----------|-----------|------------


D           E           A           D           A  G  D
---------|-----------|-----------|-----------|--0--3--2--|------------
3--3--3--|--5--5--5--|--2--2--2--|--3--3--3--|--2--3--3--|------------
2--2--2--|--4--4--4--|--2--2--2--|--2--2--2--|--2--0--2--|------------
4--4--4--|--6--6--6--|--2--2--2--|--4--4--4--|--2--0--0--|------------
5--5--5--|--7--7--7--|--0--0--0--|--5--5--5--|--0--2-----|------------
---------|-----------|-----------|-----------|-----3-----|------------


A  G  D     Just Between Us...         C
0--3--2--|--5--------7--------8-----|--0--------3--|------------------
2--3--3--|--------------------------|--1--------0--|------------------
2--0--2--|-----7--------7--------7--|--0--------0--|------------------
2--0--0--|--------7--------7--------|--2--------0--|------------------
0--2-----|--------------------------|--3--------2--|------------------
---3-----|--------------------------|-----------3--|------------------


   G  Cadd9 G                                C  C     Dsus2 G
---3--0--0--3--|--5--------7--------8-----|--0--0--|--0-----3--|------
---0--3--3--0--|--------------------------|--1--1--|--3-----0--|------
---0--0--0--0--|-----7--------7--------7--|--0--0--|--2-----0--|------
---0--2--2--0--|--------7--------7--------|--2--2--|--0-----0--|------
---2--3--3--2--|--------------------------|--3--3--|--------2--|------
---3--------3--|--------------------------|--------|--------3--|------


Just Between us..          C                 G  Cadd9
5--------7--------8-----|--0--------3--|-----3--0--0--|---------------
------------------------|--1--------0--|-----0--3--3--|---------------
---7--------7--------7--|--0--------0--|-----0--0--0--|---------------
------7--------7--------|--2--------0--|-----0--2--2--|---------------
------------------------|--3--------2--|-----2--3--3--|---------------
------------------------|-----------3--|-----3--------|---------------


Spaces in between...       C     Csus2    Csus2
5--------7--------8-----|--0--|--3--5--|--3--5--3--|------------------
------------------------|--1--|--3--7--|--3--3--3--|------------------
---7--------7--------7--|--0--|--5--7--|--5--2--0--|------------------
------7--------7--------|--2--|--5--7--|--5--0--0--|------------------
------------------------|--3--|--3--5--|--3-----2--|------------------
------------------------|-----|--------|--------3--|------------------

======================================================================
==           Created with a demo version of BUCKET O' TAB           ==
==             tablature creation software for Windows              ==
==                  http://www.his.com/~gse/bucket                  ==
======================================================================