Rush: Driven
From the album Test for Echo (Atlantic Records)
Copyright 1996 Core Music Publishing
Music by Lee and Lifeson
Lyrics by Peart

letostak@ix.netcom.com (Judy Letostak)
Metal Edge BBS (619)423-4970
1:202/1109 (FidoNet)
http://www.netcom.com/~letostak/musicshp.html

Intro

---------------------------------------------------------
---------------------------------------------------------
---------------------------------------------------------
---------------------------------------------------------
-3-0-0-5-0-0-3-0-0-5-0-0-0-3p0-3p0--3-0-0-5-0-0-6p0-6p0--
---------------------------------------------------------


-----------|
-----------|
-----------|
-----------|
-6p0-5p0---|
-----------|


Verses
4x
---------------------------------------------------------
---------------------------------------------------------
---------------------------------------------------------
---------------------------------------------------------
-3-0-0-5-0-0-3-0-0-5-0-0-3p0-3p0--3-0-0-5-0-0-6p0-6p0-6p0
---------------------------------------------------------

3rd verse only

---------------------------------------------------------
---------------------------------------------------------
-2--2---2----2---------------------------------2-2--2---2
-3--3---3----3---5---5--5-----5---7--7--7--7---3-3--3---3
-3--3---3----3---5---5--5-----5---7--7--7--7---3-3--3---3
-1--1---1----1---3---3--3-----3---5--5--5--5---1-1--1---1


---------------------------------------------------------
---------------------------------------------------------
--------------------7----9-------------------------------
-5----5--5----5-----7----9-------------------------------
-5----5--5----5-----5----7----9\-------------------------
-3----3--3----3-----5----7-------------------------------


Chorus

---------------------------------------------------------
---------------------------------------------------------
---------------------------------------------------------
--3----3----3---5--3---5-----7-----7---7--7---5----7-----
--3----3----3---5--3---5-----7-----7---7--7---5----7-----
--1----1----1---3--1---3-----5-----5---5--5---3----5-----


---------------------------------------------------------
---------------------------------------------------------
-----------------------------7-------9-------------------
-3---3---3---5--3----5-------7-------9----------3----3---
-3---3---3---5--3----5-------5-------7--9\------3----3---
-1---1---1---3--1----3-------5-------7----------1----1---


---------------------------------------------------------
---------------------------------------------------------
---------------------------------------------------------
-5---3---5---7--7---7---7----5---7-----3--3---3---5--3--5
-5---3---5---7--7---7---7----5---7-----3--3---3---5--3--5
-3---1---3---5--5---5---5----3---5-----1--1---1---3--1--3


---------------------------------------------------------
---------------------------------------------------------
--7-----9------------------------------------------------
--7-----9------------------------------------------------
--5-----7---9\-------------------------------------------
--5-----7------------------------------------------------

Ending 1

---------------------------------------------------------
---------------------------------------------------------
---------------------------------------------------------
--3------5------7--7----7\-------------------------------
--3------5------7--7----7\---3-0-0-5-0-0-3-0-0-5-0-0-3p0-
--1------3------5--5----5\-------------------------------


---------------------------------------------------------
---------------------------------------------------------
---------------------------------------------------------
---------------------------------------------------------
-3p0--3-0-0-5-0-0-6p0-6p0-6p0-5p0------------------------
---------------------------------------------------------

Ending 2

---------------------------------------------------------
---------------------------------------------------------
---------------------------------------------------------
--0------2--------3------5-------------------------------
--0------2--------3------5-------------------------------
---------0--------1------3-------------------------------


---------------------------------------------------------
---------------------------------------------------------
---------------------------------------------------------
--7--7--7--7--7--7--7------bass-interlude----------------
--7--7--7--7--7--7--7------------------------------------
--5--5--5--5--5--5--5\-----------------------------------


---------------------------------------------------------
---------------------------------------------------------
-----5---------------------------------------------------
----------------------------------7~-----7*~--7~--5------
--3------5w/bar--/5~----/6---\5----------------------6---
---------------------------------------------------------

            hold bend--------------    ----------
---8---------10------10--10--10--10----17------17--------
--11bf-------13bf----13--13--13--13----20bf----20--------
---------------------------------------------------------
---------------------------------------------------------
---------------------------------------------------------
---------------------------------------------------------

 ----------------          -------------------------------
-17--17----17--17-----20----20--20--20--20--20--20--20-20
-20--20----20--20-----23bf--23--23--23--23--23--23--23-23
---------------------------------------------------------
---------------------------------------------------------
---------------------------------------------------------
---------------------------------------------------------

  -------------------
--20--20--20--20--20\------------------------------------
--23--23--23--23--23\------------------------------------
---------------------------------------------------------
---------------------------------------------------------
---------------------------------------------------------
---------------------------------------------------------

Bridge 3x

---------------------------------------------------------
---------------------------------------------------------
------------------------------5-5-5-5-5-5-5-5-5-5-5------end bridge
------------------------------5-5-5-5-5-5-5-5-5-5-5------
-5----------3----------5------3-3-3-3-3-3-3-3-3-3-3------
----3---5~-----1----0------3-----------------------------


2x======================================================
---------------------------------------------------------
---------------------------------------------------------
----------------------------------8----8-----------------
----------------------------------8----8---8--8--8-------
---8------------6---------8~------6----6---5--6--5-------
-------6----8~------4--3------6--------------------------

2x
|-8--8----8----------------------------------------------
|-8--8----8----------------------------------------------
|-7--7----7-------5--------2--2---2--2-------------------
|-7--7----7-------5--------2--2---2--2-------------------
|-5--5----5---/7-----7\----0--0---0--0--3----------------
|------------------------------------------1--0----------


-8----8--8----13--13--13--13\----------------------------|
-8----8--8----13--13--13--13\----------------------------|
-7----7--7----12--12--12--12\------5--5--5--5------------|
-7----7--7----12--12--12--12\------5--5--5--5--5----5-5-5|
-5----5--5-------------------------3--3--3--3--2/3--3-3-3|
---------------------------------------------------------|



---------------------------------------------------------
---------------------------------------------------------
---------------------------------------------------------
-5--5--5-----3----5------7--7--7--7---5---7--------------
-2--2--2-----3----5------7--7--7--7---5---7--------------
-------------1----3------5--5--5--5---3---5--------------


---------------------------------------------------------
---------------------------------------------------------
--------------7-----9-----10----12-----------------------
-3----5-------7-----9-----10----12-----------------------
-3----5-------5-----7------8----10-----------------------
-1----3-------5-----7------8----10-----------------------


---------------------------------------------------------
---------------------------------------------------------
-14--14--14--14--14--14\---------------------------------
-14--14--14--14--14--14\---------------------------------
-12--12--12--12--12--12\----3-0-0-5-0-0-3-0-0-5-0-0-3p0--
---------------------------------------------------------


---------------------------------------------------------
---------------------------------------------------------
---------------------------------------------------------
---------------------------------------------------------
-3p0--3-0-0-5-0-0-6p0-6p0-6p0-5p0------------------------
---------------------------------------------------------


D5   E5   F5   G5   A5   F5   G5 F5 G5/E  D5  E5  F5  G5  A5


Outro Riff

---------------------------------------------------------
---------------------------------------------------------
-----5--------------------------------5~-----5-----------
----------------------7-----7~---7*~---------------------
--3-----5/5~---/6-------------------------6------6~--3-0-
---------------------------------------------------------

          --------------------------------------------
-/19b(20)-19-19--19-19---19--19-19-19-19-19---19-19-19---
---------------------------------------------------------
---------------------------------------------------------
---------------------------------------------------------
---------------------------------------------------------
---------------------------------------------------------

        14x          5x                ---
-19-17--17----17\----10------9-------8---8---\-----------
--------20b---20\----13bf---12bf----11bf-11--\-----------
---------------------------------------------------------
---------------------------------------------------------
---------------------------------------------------------
---------------------------------------------------------