Rush: Cut to the Chase
From the album Counterparts (Atlantic Records)
Copyright 1993 Core Music Publishing
Music by Lee and Lifeson
Lyrics by Peart

Comments/corrections to Augusto Raffaelli 

Transcribed by Augusto Raffaelli


   4/4 Timing
E|---------------------------------|---------------------------------|
B|---------------------------------|---------------------------------|
G|-----4-------4-----4---------4---|-----4-------4-----4---------4---|
D|---------2-----2---------2-------|---------2-----2---------2-------|
A|---------------------------------|---------------------------------|
E|-0-------------------0-----------|-0-------------------0-----------|

     Rhythm Fill
  E|---------------------------------|---------------------------------|
  B|---------------------------------|---------------------------------|
  G|-----4-------4-----4---------4---|-----4-------4-----4---------4---|
  D|---------2-----2---------2-------|---------2-----2---------2-------|
  A|---------------------------------|---------------------------------|
  E|-0-------------------0-----------|-0-------------------0-----------|

  E|---------------------------------|---------------------------------|
  B|---------------------------------|---------------------------------|
  G|-----7-------7-----7---------7---|-----7-------7-----7---------7---|
  D|---------5-----5---------5-------|---------5-----5---------5-------|
  A|-*-------------------------------|-*-------------------------------|
  E|-0-------------------0-----------|-0-------------------0-----------|

  E|---------------------------------|---------------------------------|
  B|---------------------------------|---------------------------------|
  G|-----2-------2-----2---------2---|-----2-------2-----2---------2---|
  D|---------0-----0-----0---0-------|---------0-----0-----0---0-------|
  A|---------------------------------|---------------------------------|
  E|-0-------------------------------|-0-------------------------------|

  E|---------------------------------|---------------------------------|
  B|---------------------------------|---------------------------------|
  G|-----4-------4-----4---------4---|-----4-------4-----4---------4---|
  D|---------2-----2---------2-------|---------2-----2---------2-------|
  A|---------------------------------|---------------------------------|
  E|-0-------------------0-----------|-0-------------------0-----------|

  E|---------------------------------|---------------------------------|
  B|---------------------------------|---------------------------------|
  G|-----4-------4-----4---------4---|-----4-------4-----4---------4---|
  D|---------2-----2---------2-------|---------2-----2---------2-------|
  A|---------------------------------|---------------------------------|
  E|-0-------------------0-----------|-0-------------------0-----------|

  E|---------------------------------|---------------------------------|
  B|---------------------------------|---------------------------------|
  G|-----7-------7-----7---------7---|-----7-------7-----7---------7---|
  D|---------5-----5---------5-------|---------5-----5---------5-------|
  A|-*-------------------------------|-*-------------------------------|
  E|-0-------------------0-----------|-0-------------------0-----------|

  E|---------------------------------|---------------------------------|
  B|---------------------------------|---------------------------------|
  G|-----2-------2-----2---------2---|-----2-------2-----2---------2---|
  D|---------0-----0-----0---0-------|---------0-----0-----0---0-------|
  A|---------------------------------|---------------------------------|
  E|-0-------------------------------|-0-------------------------------|

  E|---------------------------------|---------------------------------|
  B|---------------------------------|---------------------------------|
  G|-----4-------4-----4---------4---|-----4-------4-----4---------4---|
  D|---------2-----2---------2-------|---------2-----2---------2-------|
  A|---------------------------------|---------------------------------|
  E|-0-------------------0-----------|-0-------------------0-----------|

  E|---------------------------------|---------------------------------|
  B|---------------------------------|---------------------------------|
  G|-----7-------7-----7---------7---|-----2-------2-----2---------2---|
  D|---------5-----5---------5-------|---------0-----0-----0---0-------|
  A|-*-------------------------------|---------------------------------|
  E|-0-------------------0-----------|-0-------------------------------|

  E|---------------------------------|---------------------------------|
  B|---------------------------------|---------------------------------|
  G|-----4-------4-----4---------4---|-----4-------4-----4---------4---|
  D|---------2-----2---------2-------|---------2-----2---------2-------|
  A|---------------------------------|---------------------------------|
  E|-0-------------------0-----------|-0-------------------0-----------|
                                                     End of Rhythm Fill
  |------Partial Palm Muting------|
E|---------------------------------|---------------------------------|
B|---------------------------------|---------------------------------|
G|---------------------------------|---------------------------------|
D|-5/7-7-7-7p5-5-5---7-7-7-7p5-5-5-|-5/7-7-7-7p5-5-5---7-7-7-7p5-5---|
A|-5/7-7-7-7p5-5-5---7-7-7-7p5-5-5-|-5/7-7-7-7p5-5-5---7-7-7-7p5-5-2-|
E|-3/5-5-5-5---------5-5-5-5-------|-3/5-5-5-5---------5-5-5-5-------|

E|---------------------------------|---------------------------------|
B|---------------------------------|---------------------------------|
G|-4/6-6-6-6p4-4-4---6-6-6-6p4-4-4-|-4/6-6-6-6p4-4-4---6-6-6-6p4-4-4-|
D|-4/6-6-6-6p4-4-4---6-6-6-6p4-4-4-|-4/6-6-6-6p4-4-4---6-6-6-6p4-4-4-|
A|-2/4-4-4-4---4-4---4-4-4-4---4-4-|-2/4-4-4-4---4-4---4-4-4-4---4-4-|
E|---------------------------------|---------------------------------|

E|---------------------------------|---------------------------------|
B|---------------------------------|---------------------------------|
G|---------------------------------|---------------------------------|
D|-2/4-4-4-4\2-2-2---4-4-4-4\2-2-2-|-2/4-4-4-4\2-2-2---4-4-4-4\2-2-2-|
A|-2/4-4-4-4\2-2-2---4-4-4-4\2-2-2-|-2/4-4-4-4\2-2-2---4-4-4-4\2-2-2-|
E|-0---2-2-2---0-0---2-2-2-2---0-0-|-0---2-2-2---0-0---2-2-2-2---0-0-|

E|---------------------------------|---------------------------------|
B|---------------------------------|---------------------------------|
G|-4/6-6-6-6p4-4-4---6-6-6-6p4-4-4-|-4/6-6-6-6-6-6p4---6-6-6-6p4-4p0-|
D|-4/6-6-6-6p4-4-4---6-6-6-6p4-4-4-|-4/6-6-6-6-6-6p4---6-6-6-6p4-4p0-|
A|-2/4-4-4-4---4-4---4-4-4-4---4-4-|-2/4-4-4-4-4-4-----4-4-4-4-------|
E|---------------------------------|---------------------------------|

  |------Partial Palm Muting------|
E|---------------------------------|---------------------------------|
B|---------------------------------|---------------------------------|
G|---------------------------------|---------------------------------|
D|-5/7-7-7-7p5-5-5---7-7-7-7p5-5-5-|-5/7-7-7-7p5-5-5---7-7-7-7p5-5---|
A|-5/7-7-7-7p5-5-5---7-7-7-7p5-5-5-|-5/7-7-7-7p5-5-5---7-7-7-7p5-5-2-|
E|-3/5-5-5-5---------5-5-5-5-------|-3/5-5-5-5---------5-5-5-5-------|

E|---------------------------------|---------------------------------|
B|---------------------------------|---------------------------------|
G|-4/6-6-6-6p4-4-4---6-6-6-6p4-4-4-|-4/6-6-6-6p4-4-4---6-6-6-6p4-4-4-|
D|-4/6-6-6-6p4-4-4---6-6-6-6p4-4-4-|-4/6-6-6-6p4-4-4---6-6-6-6p4-4-4-|
A|-2/4-4-4-4---4-4---4-4-4-4---4-4-|-2/4-4-4-4---4-4---4-4-4-4---4-4-|
E|---------------------------------|---------------------------------|

E|---------------------------------|---------------------------------|
B|---------------------------------|---------------------------------|
G|---------------------------------|---------------------------------|
D|-5/7-7-7-7p5-5-5---7-7-7-7p5-5-5-|-5/7-7-7-7p5-5-5---7-7-7-7p5-5---|
A|-5/7-7-7-7p5-5-5---7-7-7-7p5-5-5-|-5/7-7-7-7p5-5-5---7-7-7-7p5-5-2-|
E|-3/5-5-5-5---------5-5-5-5-------|-3/5-5-5-5---------5-5-5-5-------|

E|---------------------------------|---------------------------------|
B|---------------------------------|-------------------------6-6-----|
G|-4/6-6-6-6p4-4-4---6-6-6-6p4-4-4-|-4/6-6-6-6p4-4-4---6-6-6-6-6-----|
D|-4/6-6-6-6p4-4-4---6-6-6-6p4-4-4-|-4/6-6-6-6p4-4-4---6-6-6-6-6-----|
A|-2/4-4-4-4---4-4---4-4-4-4---4-4-|-2/4-4-4-4-4-4-4---4-4-4-4-4-----|
E|---------------------------------|---------------------------------|

E|---------------------------------|---------------------------------|
B|---------------------------------|---------------------------------|
G|-----4-------4-----4---------4---|-----4-------4-----4---------4---|
D|---------2-----2---------2-------|---------2-----2---------2-------|
A|---------------------------------|---------------------------------|
E|-0-------------------0-----------|-0-------------------0-----------|

   (Guitar 2 Plays Rhythm Fill)
E|---------------------------------|---------------------------------|
B|---------------------------------|---------------------------------|
G|---------------------------------|---------------------------------|
D|---------------------------------|---------------------------------|
A|---------7\----------------------|---------7\----------------------|
E|-0---0---------0---0-0-0-3---5---|-0---0---------0---0-0-0-3---5---|

E|---------------------------------|---------------------------------|
B|---------------------------------|---------------------------------|
G|---------------------------------|---------------------------------|
D|---------------------------------|---------------------------------|
A|---------10\---------------------|---------10\---------------------|
E|-0---0---------0---0-0-0-3---5---|-0---0-------0-0---0-0-0-3---5---|

E|---------------------------------|---------------------------------|
B|---------------------------------|---------------------------------|
G|---------------------------------|---------------------------------|
D|---------------------------------|---------------------------------|
A|---------5\----------------------|---------5\----------------------|
E|-0---0---------0---0-0-0-3---5---|-0---0---------0---0-0-0-3---5---|

E|---------------------------------|---------------------------------|
B|---------------------------------|---------------------------------|
G|---------------------------------|---------------------------------|
D|---------------------------------|---------------------------------|
A|---------7\----------------------|---------7\----------------------|
E|-0---0---------0---0-0-0-3---5---|-0---0---------0---0-0-0-3---5---|

E|---------------------------------|---------------------------------|
B|---------------------------------|---------------------------------|
G|---------------------------------|---------------------------------|
D|---------------------------------|---------------------------------|
A|---------7\----------------------|---------7\----------------------|
E|-0---0---------0---0-0-0-3---5---|-0---0---------0---0-0-0-3---5---|

E|---------------------------------|---------------------------------|
B|---------------------------------|---------------------------------|
G|---------------------------------|---------------------------------|
D|---------------------------------|---------------------------------|
A|---------10\---------------------|---------10\---------------------|
E|-0---0---------0---0-0-0-3---5---|-0---0---------0---0-0-0-3---5---|

E|---------------------------------|---------------------------------|
B|---------------------------------|---------------------------------|
G|---------------------------------|---------------------------------|
D|---------------------------------|---------------------------------|
A|---------5\----------------------|---------5\----------------------|
E|-0---0---------0---0-0-0-3---5---|-0---0---------0---0-0-0-3---5---|

E|---------------------------------|---------------------------------|
B|---------------------------------|---------------------------------|
G|---------------------------------|---------------------------------|
D|---------------------------------|---------------------------------|
A|---------7\----------------------|---------7\----------------------|
E|-0---0---------0---0-0-0-3---5---|-0---0---------0---0-0-0-3---5---|

E|---------------------------------|---------------------------------|
B|---------------------------------|---------------------------------|
G|---------------------------------|---------------------------------|
D|---------------------------5-----|---------------------------------|
A|---------10\-----------5-7---7v--|---------5\----------------------|
E|-0---0---------0---0-0-----------|-0---0---------0---0-0-0-3---5---|

E|---------------------------------|---------------------------------|
B|---------------------------------|---------------------------------|
G|---------------------------------|---------------------------------|
D|---------------------------5-----|---------------------------------|
A|---------7\------------5-7---7---|---------5\----------------------|
E|-0---0---------0---0-0-----------|-0---0---------0---0-0-0-3---5---|

E|---------------------------------|---------------------------------|
B|---------------------------------|---------------------------------|
G|-4/6-6-6-6p4-4-4---6-6-6-6p4-4-4-|-4/6-6-6-6p4-4-4---6-6-6-6p4-4-4-|
D|-4/6-6-6-6p4-4-4---6-6-6-6p4-4-4-|-4/6-6-6-6p4-4-4---6-6-6-6p4-4-4-|
A|-2/4-4-4-4---4-4---4-4-4-4---4-4-|-2/4-4-4-4---4-4---4-4-4-4---4-4-|
E|---------------------------------|---------------------------------|

E|---------------------------------|---------------------------------|
B|---------------------------------|---------------------------------|
G|---------------------------------|---------------------------------|
D|-2/4-4-4-4\2-2-2---4-4-4-4\2-2-2-|-2/4-4-4-4\2-2-2---4-4-4-4\2-2-2-|
A|-2/4-4-4-4\2-2-2---4-4-4-4\2-2-2-|-2/4-4-4-4\2-2-2---4-4-4-4\2-2-2-|
E|-0---2-2-2---0-0---2-2-2-2---0-0-|-0---2-2-2---0-0---2-2-2-2---0-0-|

E|---------------------------------|---------------------------------|
B|---------------------------------|---------------------------------|
G|-4/6-6-6-6p4-4-4---6-6-6-6p4-4-4-|-4/6-6-6-6-6-6p4---6-6-6-6p4-4p0-|
D|-4/6-6-6-6p4-4-4---6-6-6-6p4-4-4-|-4/6-6-6-6-6-6p4---6-6-6-6p4-4p0-|
A|-2/4-4-4-4---4-4---4-4-4-4---4-4-|-2/4-4-4-4-4-4-----4-4-4-4-------|
E|---------------------------------|---------------------------------|

E|---------------------------------|---------------------------------|
B|---------------------------------|---------------------------------|
G|---------------------------------|---------------------------------|
D|-5/7-7-7-7p5-5-5---7-7-7-7p5-5-5-|-5/7-7-7-7p5-5-5---7-7-7-7p5-5---|
A|-5/7-7-7-7p5-5-5---7-7-7-7p5-5-5-|-5/7-7-7-7p5-5-5---7-7-7-7p5-5-2-|
E|-3/5-5-5-5---------5-5-5-5-------|-3/5-5-5-5---------5-5-5-5-------|

E|---------------------------------|---------------------------------|
B|---------------------------------|---------------------------------|
G|-4/6-6-6-6p4-4-4---6-6-6-6p4-4-4-|-4/6-6-6-6p4-4-4---6-6-6-6p4-4-4-|
D|-4/6-6-6-6p4-4-4---6-6-6-6p4-4-4-|-4/6-6-6-6p4-4-4---6-6-6-6p4-4-4-|
A|-2/4-4-4-4---4-4---4-4-4-4---4-4-|-2/4-4-4-4---4-4---4-4-4-4---4-4-|
E|---------------------------------|---------------------------------|

E|---------------------------------|---------------------------------|
B|---------------------------------|---------------------------------|
G|---------------------------------|---------------------------------|
D|-5/7-7-7-7p5-5-5---7-7-7-7p5-5-5-|-5/7-7-7-7p5-5-5---7-7-7-7p5-5---|
A|-5/7-7-7-7p5-5-5---7-7-7-7p5-5-5-|-5/7-7-7-7p5-5-5---7-7-7-7p5-5-2-|
E|-3/5-5-5-5---------5-5-5-5-------|-3/5-5-5-5---------5-5-5-5-------|

E|---------------------------------|---------------------------------|
B|---------------------------------|-------------------------6-6-----|
G|-4/6-6-6-6p4-4-4---6-6-6-6p4-4-4-|-4/6-6-6-6p4-4-4---6-6-6-6-6-----|
D|-4/6-6-6-6p4-4-4---6-6-6-6p4-4-4-|-4/6-6-6-6p4-4-4---6-6-6-6-6-----|
A|-2/4-4-4-4---4-4---4-4-4-4---4-4-|-2/4-4-4-4-4-4-4---4-4-4-4-4-----|
E|---------------------------------|---------------------------------|

                                     (Guitar 2 Plays Solo)
E|---------------------------------|---------------------------------|
B|---------------------------------|---------------------------------|
G|-----4-------4-----4---------4---|-----4-------4-----4---------4---|
D|---------2-----2---------2-------|---------2-----2---------2-------|
A|---------------------------------|---------------------------------|
E|-0-------------------0-----------|-0-------------------0-----------|

E|---------------------------------|---------------------------------|
B|---------------------------------|---------------------------------|
G|-----4-------4-----4---------4---|-----7-------7-----7---------7---|
D|---------2-----2---------2-------|---------5-----5---------5-------|
A|---------------------------------|-*-------------------------------|
E|-0-------------------0-----------|-0-------------------0-----------|

E|---------------------------------|---------------------------------|
B|---------------------------------|---------------------------------|
G|-----7-------7-----7---------7---|-----2-------2-----2---------2---|
D|---------5-----5---------5-------|---------0-----0-----0---0-------|
A|-*-------------------------------|---------------------------------|
E|-0-------------------0-----------|-0-------------------------------|

E|---------------------------------|---------------------------------|
B|---------------------------------|---------------------------------|
G|-----2-------2-----2---------2---|-----4-------4-----4---------4---|
D|---------0-----0-----0---0-------|---------2-----2---------2-------|
A|---------------------------------|---------------------------------|
E|-0-------------------------------|-0-------------------0-----------|

E|---------------------------------|---------------------------------|
B|---------------------------------|---------------------------------|
G|-----4-------4-----4---------4---|-----7-------7-----7---------7---|
D|---------2-----2---------2-------|---------5-----5---------5-------|
A|---------------------------------|-*-------------------------------|
E|-0-------------------0-----------|-0-------------------0-----------|

E|---------------------------------|---------------------------------|
B|---------------------------------|---------------------------------|
G|-----2-------2-----2---------2---|-----4-------4-----4---------4---|
D|---------0-----0-----0---0-------|---------2-----2---------2-------|
A|---------------------------------|---------------------------------|
E|-0-------------------------------|-0-------------------0-----------|

E|---------------------------------|
B|---------------------------------|
G|-----4-------4-----4---------4---|
D|---------2-----2---------2-------|
A|---------------------------------|
E|-0-------------------0-----------|

E|---------------------------------|---------------------------------|
B|---------------------------------|-1--------------/3---------------|
G|-2-------------------------------|-0--------------/x---------------|
D|-2-------------------------------|-2--------------/4---------------|
A|-0-------------------------------|-3--------------/5---------------|
E|---------------------------------|-3--------------/5---------------|

E|---------------------------------|---------------------------------|
B|---------------------------------|---------------------------------|
G|---------------------------5-----|---------------------------5-----|
D|---------7v--------7---5-7---7v--|---------7v--------7---5-7---7v--|
A|-0---0---------0-----------------|-0---0---------0-----------------|
E|---------------------------------|---------------------------------|

                                                     =======3=======
E|---------------------------------|---------------------------------|
B|---------------------------------|-1--------------/3------3------3-|
G|-2-------------------------------|-0--------------/x------x------x-|
D|-2-------------------------------|-2--------------/4------4------4-|
A|-0-------------------------------|-3--------------/5------5------5-|
E|---------------------------------|-3--------------/5------5------5-|

E|---------------------------------|---------------------------------|
B|---------------------------------|---------------------------------|
G|---------------------------5-----|---------------------------5-----|
D|---------7v--------7---5-7---7v--|---------7v--------7---5-7---7v--|
A|-0---0---------0-----------------|-0---0---------0-----------------|
E|---------------------------------|---------------------------------|

                                     =======3=======
E|---------------------------------|---------------------------------|
B|---------------------------------|---------------------------------|
G|-9-------------------------------|-4------4------4-----------------|
D|-9-------------------------------|-5------5------5/7-------7\------|
A|-7-------------------------------|-5------5------5/7-------7\------|
E|-0-------------------------------|-3------3------3/5---------------|

E|---------------------------------|---------------------------------|
B|---------------------------------|---------------------------------|
G|---------------------------------|---------------------------------|
D|---------------------------5-----|---------------------------5-----|
A|---------7v--------7---5-7---7v--|---------7v--------7---5-7---7v--|
E|-0---0---------0-----------------|-0---0---------0-----------------|

                                     =======3=======
E|---------------------------------|---------------------------------|
B|---------------------------------|---------------------------------|
G|-9-------------------------------|-4------4------4-----------------|
D|-9-------------------------------|-5------5------5/7-------7\------|
A|-7-------------------------------|-5------5------5/7-------7\------|
E|-0-------------------------------|-3------3------3/5---------------|

E|---------------------------------|---------------------------------|
B|---------------------------------|---------------------------------|
G|---------------------------------|---------------------------------|
D|---------------------------5-----|---------------------------5-----|
A|---------7v--------7---5-7---7v--|---------7v--------7---5-7---7v--|
E|-0---0---------0-----------------|-0---0---------0-----------------|

   Guitar Tacet
E|---------------------------------|---------------------------------|
B|---------------------------------|---------------------------------|
G|---------------------------------|---------------------------------|
D|---------------------------------|---------------------------------|
A|---------------------------------|---------------------------------|
E|---------------------------------|---------------------------------|

E|---------------------------------|---------------------------------|
B|---------------------------------|---------------------------------|
G|-4/6-6-6-6p4-4-4---6-6-6-6p4-4-4-|-4/6-6-6-6p4-4-4---6-6-6-6p4-4-4-|
D|-4/6-6-6-6p4-4-4---6-6-6-6p4-4-4-|-4/6-6-6-6p4-4-4---6-6-6-6p4-4-4-|
A|-2/4-4-4-4---4-4---4-4-4-4---4-4-|-2/4-4-4-4---4-4---4-4-4-4---4-4-|
E|---------------------------------|---------------------------------|

E|---------------------------------|---------------------------------|
B|---------------------------------|---------------------------------|
G|---------------------------------|---------------------------------|
D|-2/4-4-4-4\2-2-2---4-4-4-4\2-2-2-|-2/4-4-4-4\2-2-2---4-4-4-4\2-2-2-|
A|-2/4-4-4-4\2-2-2---4-4-4-4\2-2-2-|-2/4-4-4-4\2-2-2---4-4-4-4\2-2-2-|
E|-0---2-2-2---0-0---2-2-2-2---0-0-|-0---2-2-2---0-0---2-2-2-2---0-0-|

E|---------------------------------|---------------------------------|
B|---------------------------------|---------------------------------|
G|-4/6-6-6-6p4-4-4---6-6-6-6p4-4-4-|-4/6-6-6-6-6-6p4---6-6-6-6p4-4p0-|
D|-4/6-6-6-6p4-4-4---6-6-6-6p4-4-4-|-4/6-6-6-6-6-6p4---6-6-6-6p4-4p0-|
A|-2/4-4-4-4---4-4---4-4-4-4---4-4-|-2/4-4-4-4-4-4-----4-4-4-4-------|
E|---------------------------------|---------------------------------|

E|---------------------------------|---------------------------------|
B|---------------------------------|---------------------------------|
G|---------------------------------|---------------------------------|
D|-5/7-7-7-7p5-5-5---7-7-7-7p5-5-5-|-5/7-7-7-7p5-5-5---7-7-7-7p5-5---|
A|-5/7-7-7-7p5-5-5---7-7-7-7p5-5-5-|-5/7-7-7-7p5-5-5---7-7-7-7p5-5-2-|
E|-3/5-5-5-5---------5-5-5-5-------|-3/5-5-5-5---------5-5-5-5-------|

E|---------------------------------|---------------------------------|
B|---------------------------------|---------------------------------|
G|-4/6-6-6-6p4-4-4---6-6-6-6p4-4-4-|-4/6-6-6-6-6-6p4---6-6-6-6p4-4p0-|
D|-4/6-6-6-6p4-4-4---6-6-6-6p4-4-4-|-4/6-6-6-6-6-6p4---6-6-6-6p4-4p0-|
A|-2/4-4-4-4---4-4---4-4-4-4---4-4-|-2/4-4-4-4-4-4-----4-4-4-4-------|
E|---------------------------------|---------------------------------|

E|---------------------------------|---------------------------------|
B|---------------------------------|---------------------------------|
G|---------------------------------|---------------------------------|
D|-5/7-7-7-7p5-5-5---7-7-7-7p5-5-5-|-5/7-7-7-7p5-5-5---7-7-7-7p5-5---|
A|-5/7-7-7-7p5-5-5---7-7-7-7p5-5-5-|-5/7-7-7-7p5-5-5---7-7-7-7p5-5-2-|
E|-3/5-5-5-5---------5-5-5-5-------|-3/5-5-5-5---------5-5-5-5-------|

E|---------------------------------|---------------------------------|
B|---------------------------------|---------------------------------|
G|-4/6-6-6-6p4-4-4---6-6-6-6p4-4-4-|-4/6-6-6-6p4-4-4---6-6-6-6p4-4-4-|
D|-4/6-6-6-6p4-4-4---6-6-6-6p4-4-4-|-4/6-6-6-6p4-4-4---6-6-6-6p4-4-4-|
A|-2/4-4-4-4---4-4---4-4-4-4---4-4-|-2/4-4-4-4---4-4---4-4-4-4---4-4-|
E|---------------------------------|---------------------------------|

E|---------------------------------|---------------------------------|
B|---------------------------------|---------------------------------|
G|---------------------------------|---------------------------------|
D|-2/4-4-4-4\2-2-2---4-4-4-4\2-2-2-|-2/4-4-4-4\2-2-2---4-4-4-4\2-2-2-|
A|-2/4-4-4-4\2-2-2---4-4-4-4\2-2-2-|-2/4-4-4-4\2-2-2---4-4-4-4\2-2-2-|
E|-0---2-2-2---0-0---2-2-2-2---0-0-|-0---2-2-2---0-0---2-2-2-2---0-0-|

E|---------------------------------|---------------------------------|
B|---------------------------------|---------------------------------|
G|-4/6-6-6-6p4-4-4---6-6-6-6p4-4-4-|-4/6-6-6-6-6-6p4---6-6-6-6p4-4p0-|
D|-4/6-6-6-6p4-4-4---6-6-6-6p4-4-4-|-4/6-6-6-6-6-6p4---6-6-6-6p4-4p0-|
A|-2/4-4-4-4---4-4---4-4-4-4---4-4-|-2/4-4-4-4-4-4-----4-4-4-4-------|
E|---------------------------------|---------------------------------|

E|---------------------------------|---------------------------------|
B|---------------------------------|---------------------------------|
G|---------------------------------|---------------------------------|
D|-5/7-7-7-7p5-5-5---7-7-7-7p5-5-5-|-5/7-7-7-7p5-5-5---7-7-7-7p5-5---|
A|-5/7-7-7-7p5-5-5---7-7-7-7p5-5-5-|-5/7-7-7-7p5-5-5---7-7-7-7p5-5-2-|
E|-3/5-5-5-5---------5-5-5-5-------|-3/5-5-5-5---------5-5-5-5-------|

E|---------------------------------|---------------------------------|
B|---------------------------------|---------------------------------|
G|-4/6-6-6-6p4-4-4---6-6-6-6p4-4-4-|-4/6-6-6-6p4-4-4---6-6-6-6p4-4-4-|
D|-4/6-6-6-6p4-4-4---6-6-6-6p4-4-4-|-4/6-6-6-6p4-4-4---6-6-6-6p4-4-4-|
A|-2/4-4-4-4---4-4---4-4-4-4---4-4-|-2/4-4-4-4---4-4---4-4-4-4---4-4-|
E|---------------------------------|---------------------------------|

E|---------------------------------|---------------------------------|
B|---------------------------------|---------------------------------|
G|---------------------------------|-------------------2-2-2-2-4-4-4-|
D|-5/7-7-7-7p5-5-5---7-7-7-7p5-5-5-|-5/7-7-7-7p5-5-5---2-2-2-2-4-4-4-|
A|-5/7-7-7-7p5-5-5---7-7-7-7p5-5-5-|-5/7-7-7-7p5-5-5---0-0-0-0-2-2-2-|
E|-3/5-5-5-5---------5-5-5-5-------|-3/5-5-5-5-----------------------|

E|---------------------------------|---------------------------------|
B|---------------------------------|---------------------------------|
G|-4/6-6-6-6p4-4-4---6-6-6-6p4-4-4-|-4h6-6-6-6-6-6-6-6-6-6-6-6-6-6---|
D|-4/6-6-6-6p4-4-4---6-6-6-6p4-4-4-|-4h6-6-6-6-6-6-6-6-6-6-6-6-6-6---|
A|-2/4-4-4-4---4-4---4-4-4-4---4-4-|-4---4-4-4-4-4-4-4-4-4-4-4-4-4---|
E|---------------------------------|---------------------------------|
                                                                  End


Solo (4/4 Timing)

               ========6========         ====3===
   s  s  s  s  s  s  s  s  s  s  t  E    s  s  s  t  t  t  t  t  t  t  t
E|-19-24p22p19-17h19-17-15-17-19-17p15---------------------15-17p15----15-|
B|---------------------------------------17-17p15----15h17----------18----|
G|------------------------------------------------16----------------------|
D|------------------------------------------------------------------------|
A|------------------------------------------------------------------------|
E|------------------------------------------------------------------------|

   s  s  t  t  s    Q           t  S  t  s  t  s  s
E|------------------------------12h14\10-12-10-14-10-|
B|-17p15----15-17~-(17)\-----------------------------|
G|-------16------------------------------------------|
D|---------------------------------------------------|
A|---------------------------------------------------|
E|---------------------------------------------------|

                       ==3==             ==3==
   s    E     e    s s s s s t t t t e   s s s
E|---------------------------------------------|
B|-12-8h10~--(10)--8p7-8p7---7-----------------|
G|-------------------------9---9p7-------------|
D|---------------------------------9-7---5---5-|
A|-----------------------------------------7---|
E|---------------------------------------------|

   ==3==                 ==3== =======6========
   s s s e   q       e   e   s s  s  s  s  s  s
E|-----------------------0----------------------|
B|---------------------------0-10h12h15p13p10-8-|
G|----------------------------------------------|
D|------------------(-1)------------------------|
A|-7p5h7p5~-(5)\-----5d-------------------------|
E|----------------------------------------------|

   ======6======  =====6====== ===3===         ===3===
   s  s s s s  s  s s s s s s  s  s s  s    s  s  s  s  s  s
E|---------------------------------------------------------12-|
B|-10p8\7-8p7-(7)------------------------------------12h14----|
G|----------------9p7---7-9/11-12p9----9-------12-14----------|
D|--------------------9-------------12---12/14----------------|
A|------------------------------------------------------------|
E|------------------------------------------------------------|

   q        E     s   e    e   s  s  s     s
E|-14~-----(14)---15-(15)--14--12----12-------|
B|--------------------------------15----15b17-|
G|--------------------------------------------|
D|--------------------------------------------|
A|--------------------------------------------|
E|--------------------------------------------|

               ========6========             ====3=== ====3===
   s  s  s  s  s  s  s  s  s  s  t  t  t  t  s  s  s  s  s  s  t  t  t  t
E|-12----------12----------------12----------------------------------------|
B|----15-12h15----15p12----12-15----15p12-------------------12-15p12-------|
G|----------------------14----------------15\14p12----12h14----------14p12-|
D|-------------------------------------------------14----------------------|
A|-------------------------------------------------------------------------|
E|-------------------------------------------------------------------------|

            ====3=== ========6======= ======6======
   t  s  t  s  s  s  s  s  s  s  s  s s s  s  s s s s  s  s  s
E|--------------------------------------------------------------|
B|--------------------------------------------------------------|
G|-14p12--------------------------------------------------------|
D|-------14-14-14p12-14p12\11h12p11\9p7h9p(7)-7\5-----------(5)-|
A|------------------------------------------------7-5-(5)-7-----|
E|--------------------------------------------------------------|

   ==3==                      =======3======
   s s s e   q       e   s  s e    e      e
E|---------------------------------------------|
B|-----------------------10---12-------12/14---|
G|-------7~-(7)------9------9------9-----------|
D|-7h8h9---------------------------------------|
A|---------------------------------------------|
E|---------------------------------------------|

                         ====3===
   s  s  e     E   E     s  s  s  s  s  e
E|-----------------------------------12-15v--|
B|-13----12v--(12)/19-------------14---------|
G|----14-----------------12h14h16------------|
D|-------------------------------------------|
A|-------------------------------------------|
E|-------------------------------------------|

    s   e   s  e  s     e     q        s   e
E|-(15)-14--12----12-15b17v--(17)-----(15)p12--|
B|-------------15------------------------------|
G|---------------------------------------------|
D|---------------------------------------------|
A|---------------------------------------------|
E|---------------------------------------------|

   =====3====  =======5======           ======3=====
   e   e   e   s  s  s  s  s   E     s   e    e   e
E|-12--12--14--12----12-------------------------------|
B|----------------15----15-12-(12)----------------15--| fermata
G|-----------------------------------14-(14)--12------|
D|----------------------------------------------------|
A|----------------------------------------------------|
E|----------------------------------------------------|
                                           End Of Solo


Tablature Explanation


* or () - Ghost Note
/       - Slide Down
\       - Slide Up
p       - Pull Off
h       - Hammer On
v       - Vibrato
~       - Vibrato With Bar
b       - Bend
d (-1)  - Bar Dive


Notation

w - Whole
h - Half
q - Quarter
e - 8th
s - 16th
t - 32th
x - 64th

Capital durations are dotted notes.