Rush: Cold Fire
From the album Counterparts (Atlantic Records)
Copyright 1993 Core Music Publishing
Music by Lee and Lifeson
Lyrics by Peart

Transcribed by Jeff Jacobsen and Branden Robinson


Intro:
                   <-------5 times------------------->                	
|-x-x-x-x-x-x-x---|-----------------|-----------------|
|-x-x-x-x-x-x-x---|---8---8---8-7---|-8---8-----------|
|-x-x-x-x-x-x-x---|o--7---7---7-7-0-|-7---7---5H7-5--o|
|-----------------|o--7---7---7-7---|-7---7---5H7-5--o|
|---------------0-|---0---0---------|-0---0-----------|
|-----------------|-----------------|-----------------|

Verse 1:

|----------|------|------|------|-----------5--|-(5)--|-1--|-(1)---1------|
|----------|------|------|------|-------5------|------|----|---------1----|
|-------0--|-(0)--|-(0)--|-(0)--|---------5----|------|----|--------------|
|-----3----|------|------|------|-----7--------|------|----|-----------3--|
|---3------|------|------|------|---7----------|------|----|--------------|
|-1--------|------|------|------|-5------------|------|----|--------------|

|----|------|-------0----------|------|-------0-------3--|-(3)--|
|-1--|-(1)--|-----------1------|------|-----------1------|------|
|----|------|-----2---------2--|-(2)--|-----0------------|------|
|----|------|------------------|------|---2--------------|------|
|----|------|-0----------------|------|-3----------------|------|
|----|------|------------------|------|------------------|------|

|-{1--|-(1)--|-{8---|-(8)---|-0--------------|----|------------------|------|
|-{1--|-(1)--|-{8---|-(8)---|---1-----1------|----|-------3-------3--|-(3)--|
|-{2--|-(2)--|-{10--|-(10)--|-----(2)--------|-2--|-----------0------|------|
|-{3--|-(3)--|-{10--|-(10)--|----------------|----|-----2------------|------|
|-{3--|-(3)--|-{8---|-(8)---|-------------0--|----|-0----------------|------|
|-{1--|-(1)--|------|-------|----------------|----|------------------|------|

Chorus:

|----------------|----------------|----------------|--------------|
|----------------|----------------|----------------|--------------|
|-------0--------|-------0--------|-------0--------|-------0------|
|-----3-----3----|-----5-----5----|-----7----------|-----7--------|
|---3---------3--|---5---------5--|---7-------7----|---7-------7--|
|-1--------------|-3--------------|-5-----------5--|-5------------|

|----------------|------------------|----------------|----------------|
|----------------|------------------|-8---8---8-7----|-8---8----------|
|-------0--------|-------0-------0--|-7---7---7-7-0--|-7---7---5H7-5--|
|-----3-----3----|-----5-----5------|-7---7---7-7----|-7---7---5H7-5--|
|---3---------3--|---5---------5----|-0---0----------|-0---0----------|
|-1--------------|-3----------------|----------------|----------------|

|----------------|----------------|
|-----8---8-7----|-8---8----------|
|-----7---7-7-0--|-7---7---5H7-5--|
|-----7---7-7----|-7---7---5H7-5--|
|-7---0----------|-0---0----------|
|-5--------------|----------------|

Verse 2:

|-{1--|-(1)---1------|----|------|-{5----------|-5~~--|-{1--|---8-------|
|-{1--|-(1)-----1----|-1--|-(1)--|-{5-----5----|------|-{1--|-----8-----|
|-{2--|-(2)----------|----|------|-{5---5---5--|------|-{2--|-----------|
|-{3--|-(3)-------3--|----|------|-{7----------|------|-{3--|-------10--|
|-{3--|-(3)----------|----|------|-{7----------|------|-{3--|-----------|
|-{1--|-(1)----------|----|------|-{5----------|------|-{1--|-----------|

|-{8---|---------------|------------------|-5--|---------------1--|
|-{8---|-{10---(10)~~--|-5-------------5--|----|-1-----1----------|
|-{10--|-{10---(10)~~--|---5---5-----5----|----|-----------2------|
|-{10--|-{10---(10)~~--|-----------7------|----|-----3------------|
|-{8---|-{8----(8)~~~--|-----7------------|----|---3--------------|
|------|---------------|------------------|----|------------------|

                               <-----2 times----------------------->
|-(1)------|-{1---1------|-1--|-------------------|-----------------|
|----------|-{1----------|-1--|--------8---8-7----|-----8-----------|
|----------|-{2-----2----|-2--|o-(7)---7---7-7-0--|-7---7---5H7-5--o|
|----------|-{3-------3--|-3--|o-(7)---7---7-7----|-7---7---5H7-5--o|
|-------3--|-{3----------|----|---0----0----------|-0---0-----------|
|----------|-{1----------|----|-------------------|-----------------|

Bridge:

 <-----8 times----------------------->
|-------------------|-----------------|
|--------8---8-7----|-----8-----------|
|o-(7)---7---7-7-0--|-7---7---5H7-5--o|
|o-(7)---7---7-7----|-7---7---5H7-5--o|
|---0----0----------|-0---0-----------|
|-------------------|-----------------|

Chorus:

 <---------3 times------------------------------------------------->
|-----------------|----------------|----------------|---------------|
|-----------------|----------------|----------------|---------------|
|o-------0--------|-------0--------|-------0--------|-------0------o|
|o-----3-----3----|-----5-----5----|-----7----------|-----7--------o|
|----3---------3--|---5---------5--|---7-------7----|---7-------7---|
|--1--------------|-3--------------|-5-----------5--|-5-------------|

|----------------|----------------|
|----------------|----------------|
|-------0--------|-------0--------|
|-----3-----3----|-----5-----5----|
|---3---------3--|---5---------5--|
|-1--------------|-3--------------|

Solo:

|-------------------------0-12-15P|-12----12------12--------------------------|
|---------------------------------|----15----15^f----15-13----15-(15)~-(15)\--|
|----------14H17~~--(17)/---------|------------------------14-----------------|
|-12H14H17------------------------|-------------------------------------------|
|---------------------------------|-------------------------------------------|
|---------------------------------|-------------------------------------------|

|----8-12------8-------------|--------------------|---------------------------|
|-10------8-10---10---10-8---|--------------------|---------------------------|
|-------------------9------9-|-9---(9)~~---9---9--|---------------------------|
|----------------------------|--------------------|-7-9-5---5-----------------|
|----------------------------|--------------------|-------7---7-6-5-3-5-3-5/7-|
|----------------------------|--------------------|---------------------------|

|----------------------------|---------------------------------|
|----------------------------|--------------15P0H8H10H13---17P-|
|------5--------------7P5----|-5-7/9-(9)~~---------------------|
|--------7----7-7~~-------7--|---------------------------------|
|-(7)-------x----------------|---------------------------------|
|----------------------------|---------------------------------|

|------------------------------------|-0H5P0--------------------------|
|-13-13-10-----12/13---(13)~~--(13)/-|-------0-8P5P0-0----------------|
|----------9-9-----------------------|-----------------7P5---5-7/9~~--|
|------------------------------------|---------------------7----------|
|------------------------------------|--------------------------------|
|------------------------------------|--------------------------------|

|-----------12--------------------|--------------12----------12--|
|-----15^f-------13---------------|-15------13---------13/15-----|
|-(9)---------------12H14~~---12--|-----14----------12-----------|
|---------------------------------|------------------------------|
|---------------------------------|------------------------------|
|---------------------------------|------------------------------|

                             <-------2 times------------------->
|-(12)-15----12^f-----12^f--|-----------------|-----------------|
|---------13-15^f-----13^f--|---8---8---8-7---|-8---8-----------|
|---------------------------|o--7---7---7-7-0-|-7---7---5H7-5--o|
|---------------------------|o--7---7---7-7---|-7---7---5H7-5--o|
|---------------------------|---0---0---------|-0---0-----------|
|---------------------------|-----------------|-----------------|

Bridge:

 <-----8 times----------------------->
|-------------------|-----------------|
|--------8---8-7----|-----8-----------|
|o-(7)---7---7-7-0--|-7---7---5H7-5--o|
|o-(7)---7---7-7----|-7---7---5H7-5--o|
|---0----0----------|-0---0-----------|
|-------------------|-----------------|

Chorus:

 <---------2 times------------------------------------------------->
|-----------------|----------------|----------------|---------------|
|-----------------|----------------|----------------|---------------|
|o-------0--------|-------0--------|-------0--------|-------0------o|
|o-----3-----3----|-----5-----5----|-----7----------|-----7--------o|
|----3---------3--|---5---------5--|---7-------7----|---7-------7---|
|--1--------------|-3--------------|-5-----------5--|-5-------------|

Coda:

 <---------2 times----------------------------------------------------------->
|---------------------|-------------------|-----7---------|---------7---------|
|--------8------------|----------10-------|---8-----8-----|-------8-----8-----|
|o----10-----10---10/-|-12----12------12--|-9-----------9-|-(9)-9----------9-o|
|o-10-----------------|----12-------------|---------------|------------------o|
|---------------------|-------------------|---------------|-------------------|
|---------------------|-------------------|---------------|-------------------|


|--------------------|--------------------------|
|-------8------------|----------10--------------|
|----10-----10---10/-|-12----12------12---(12)\-|
|-10-----------------|----12--------------------|
|--------------------|--------------------------|
|--------------------|--------------------------|

 <-------8 times to fade----------->                	
|-----------------|-----------------|
|---8---8---8-7---|-8---8-----------|
|o--7---7---7-7-0-|-7---7---5H7-5--o|
|o--7---7---7-7---|-7---7---5H7-5--o|
|---0---0---------|-0---0-----------|
|-----------------|-----------------|


KEY:

	x	Scratch
	H	Hammer on
	P	Pull off
	{	Slow sweep of chord
	~	Tremolo
	/	Slide up
	\	Slide down
	^f	Bend up a full step