Rush: Beneath, Between, and Behind
From the album Fly by Night (Mercury Records)
Copyright 1975 Core Music Publishing
Music by Lifeson
Lyrics by Peart

Comments/corrections to C. D. Bruce 

Transcription by Bob Anderson and C. D. Bruce


 Intro
e|-------------------------------|-------------------------------|
B|-2/----------3/----------5-----|-------------------------------|
G|ox-----------x-----------x-----|------------------------------o|
D|o2/----------4/----------5-----|------------------------------o|
A|-0-----------------------------|-------------------------------|
E|-------------------------------|-------------------------------|

e|-------------------------------|-------------------------------|
B|-2/----------3/----------5/----|-----7----------/-8\-----7-----|
G|-x-----------x-----------x-----|-----x------------x------x-----|
D|-2/----------4/----------5/----|-----7----------/-9\-----7-----|
A|-0-----------------------------|-------------------------------|
E|-------------------------------|-------------------------------|

                           Eno3rd
e|-------------------------0~----|-------------------------------|
B|-------------------------0~----|-------------------------------|
G|---h---p-----------------4~----|-------------------------------|
D|-0---2---0---------------2~----|-------------------------------|
A|-------------------------2~----|-------------------------------|
E|-------------0-------0---0~----|-------------------------------|

  3 times
  Vocal start on 2nd repeat
e|-------------------------------|-------------------------------|
B|-2/----------3/----------5/----|-----7----------/-8\-----7-----|
G|ox-----------x-----------x-----|-----x------------x------x-----|
D|o2/----------4/----------5/----|-----7----------/-9\-----7-----|
A|-0-----------------------------|-------------------------------|
E|-------------------------------|-------------------------------|

e|-------------------------------|-------------------------------|
B|-2/----------3/----------5/----|-----7----------/-8\-----7-----|
G|-x-----------x-----------x-----|-----x------------x------x-----|
D|-2/----------4/----------5/----|-----7----------/-9\-----7-----|
A|-0-----------------------------|-------------------------------|
E|-------------------------------|-------------------------------|

e|-------------------------------|-------------------------------|
B|-2/----------3/----------5/----|-----7----------/-8\-----7-----|
G|-x-----------x-----------x-----|-----x------------x------x-----|
D|-2/----------4/----------5/----|-----7----------/-9\-----7-----|
A|-0-----------------------------|-------------------------------|
E|-------------------------------|-------------------------------|

                           Eno3rd
e|-------------------------0~----|-------------------------------|
B|-------------------------0~----|-------------------------------|
G|-------------------------4~----|------------------------------o|
D|-0---2---0---------------2~----|------------------------------o|
A|-------------------------2~----|-------------------------------|
E|-------------0-------0---0~----|-------------------------------|

  Chorus
  3 times
   D           G           D           G           D       E
e|-2-----------3-----------2-----|-----3-----------2-------0.----|
B|-3-----------3-----------3-----|-----3-----------3-------0.----|
G|o2-----------0-----------2-----|-----0-----------2------------o|
D|o0-----------0-----------0-----|-----0-----------0------------o|
A|-------------x-----------------|-----x-------------------------|
E|-------------3-----------------|-----3-------------------------|

e|-------------------------------|-------------------------------|
B|-------------------------------|-------------------------------|
G|-------------------------------|-------------------------------|
D|-------------------------------|-------------------------------|
A|-3---3---3---2---2---2---------|-------------------------------|
E|-------------------------5---5-|-5---3---3---3---2-------0-----|

  3 times
   D           G           D           G           D       E
e|-2-----------3-----------2-----|-----3-----------2-------0.----|
B|-3-----------3-----------3-----|-----3-----------3-------0.----|
G|o2-----------0-----------2-----|-----0-----------2------------o|
D|o0-----------0-----------0-----|-----0-----------0------------o|
A|-------------x-----------------|-----x-------------------------|
E|-------------3-----------------|-----3-------------------------|

e|-------------------------------|-------------------------------|
B|-------------------------------|-------------------------------|
G|-------------------------------|-------------------------------|
D|-------------------------------|-------------------------------|
A|-3---3---3---2---2---2---------|-------------------------------|
E|-------------------------5---5-|-5---3---3---3---2-------3-----|

e|-------------------------------|-------------------------------|
B|-------------------------------|-------------------------------|
G|-------------------------------|-------------------------------|
D|-------------------------------|-------------------------------|
A|-------------------------------|-------------------------------|
E|-5-----------3-----------2~----|-----0-----------2-------0-----|

e|-------------------------------|-------------------------------|
B|-2/----------3/----------5-----|-------------------------------|
G|ox-----------x-----------x-----|------------------------------o|
D|o2/----------4/----------5-----|------------------------------o|
A|-0-----------------------------|-------------------------------|
E|-------------------------------|-------------------------------|

e|-------------------------------|-------------------------------|
B|-2/----------3/----------5/----|-----7----------/-8\-----7-----|
G|-x-----------x-----------x-----|-----x------------x------x-----|
D|-2/----------4/----------5/----|-----7----------/-9\-----7-----|
A|-0-----------------------------|-------------------------------|
E|-------------------------------|-------------------------------|

                           Eno3rd
e|-------------------------0~----|-------------------------------|
B|-------------------------0~----|-------------------------------|
G|---h---p-----------------4~----|-------------------------------|
D|-0---2---0---------------2~----|-------------------------------|
A|-------------------------2~----|-------------------------------|
E|-------------0-------0---0~----|-------------------------------|

  2nd Verse
e|-------------------------------|-------------------------------|
B|-2/----------3/----------5/----|-----7----------/-8\-----7-----|
G|ox-----------x-----------x-----|-----x------------x------x-----|
D|o2/----------4/----------5/----|-----7----------/-9\-----7-----|
A|-0-----------------------------|-------------------------------|
E|-------------------------------|-------------------------------|

e|-------------------------------|-------------------------------|
B|-2/----------3/----------5/----|-----7----------/-8\-----7-----|
G|-x-----------x-----------x-----|-----x------------x------x-----|
D|-2/----------4/----------5/----|-----7----------/-9\-----7-----|
A|-0-----------------------------|-------------------------------|
E|-------------------------------|-------------------------------|

e|-------------------------------|-------------------------------|
B|-2/----------3/----------5/----|-----7----------/-8\-----7-----|
G|-x-----------x-----------x-----|-----x------------x------x-----|
D|-2/----------4/----------5/----|-----7----------/-9\-----7-----|
A|-0-----------------------------|-------------------------------|
E|-------------------------------|-------------------------------|

                           Eno3rd
e|-------------------------0~----|-------------------------------|
B|-------------------------0~----|-------------------------------|
G|-------------------------4~----|------------------------------o|
D|-0---2---0---------------2~----|------------------------------o|
A|-------------------------2~----|-------------------------------|
E|-------------0-------0---0~----|-------------------------------|

  Chorus
  3 times
   D           G           D           G           D       E
e|-2-----------3-----------2-----|-----3-----------2-------0.----|
B|-3-----------3-----------3-----|-----3-----------3-------0.----|
G|o2-----------0-----------2-----|-----0-----------2------------o|
D|o0-----------0-----------0-----|-----0-----------0------------o|
A|-------------x-----------------|-----x-------------------------|
E|-------------3-----------------|-----3-------------------------|

e|-------------------------------|-------------------------------|
B|-------------------------------|-------------------------------|
G|-------------------------------|-------------------------------|
D|-------------------------------|-------------------------------|
A|-3---3---3---2---2---2---------|-------------------------------|
E|-------------------------5---5-|-5---3---3---3---2-------0-----|

  3 times
   D           G           D           G           D       E
e|-2-----------3-----------2-----|-----3-----------2-------0.----|
B|-3-----------3-----------3-----|-----3-----------3-------0.----|
G|o2-----------0-----------2-----|-----0-----------2------------o|
D|o0-----------0-----------0-----|-----0-----------0------------o|
A|-------------x-----------------|-----x-------------------------|
E|-------------3-----------------|-----3-------------------------|

e|-------------------------------|-------------------------------|
B|-------------------------------|-------------------------------|
G|-------------------------------|-------------------------------|
D|-------------------------------|-------------------------------|
A|-3---3---3---2---2---2---------|-------------------------------|
E|-------------------------5---5-|-5---3---3---3---2-------3-----|

e|-------------------------------|-------------------------------|
B|-------------------------------|-------------------------------|
G|-------------------------------|-------------------------------|
D|-------------------------------|-------------------------------|
A|-------------------------------|-------------------------------|
E|-5-----------3-----------2~----|-----0-----------2-------0-----|

  Solo
e|-------------------------------|-------------------------------|
B|-------------------------------|-------------------------------|
G|o------------------------------|-----------------2---3---5-----|
D|o------------2---2---2---3---3-|-3---5---5---5-----------------|
A|-3---3---3---------------------|-------------------------------|
E|-------------------------------|-------------------------------|

e|-------------------------------|-------------------------------|
B|-------------------------------|-------------------------------|
G|-------------------------------|-----------------4---5---7\----|
D|-------------4---4---4---5---5-|-5---7---7---7-----------------|
A|-5---5---5---------------------|-------------------------------|
E|-------------------------------|-------------------------------|

e|-------------------------------|-------------------------------|
B|-------------------------------|-------------------------------|
G|-------------------------------|-------------------------------|
D|-------------------------------|-----------------0---1---3-----|
A|-------------0---0---0---1---1-|-1---3---3---3-----------------|
E|-1---1---1---------------------|-------------------------------|

e|-------------------------------|-------------------------------|
B|-------------------------------|-------------------------------|
G|-------------------------------|------------------------------o|
D|-------------------------------|-----------------2---3---5----o|
A|-------------2---2---2---3---3-|-3---5---5---5-----------------|
E|-3---3---3---------------------|-------------------------------|

e|-------------------------------|-------------------------------|
B|-------------------------------|-------------------------------|
G|o------------------------------|------------------------------o|
D|o------------------------------|-----------------4---5---7----o|
A|-------------4---4---4---5---5-|-5---7---7---7-----------------|
E|-5---5---5---------------------|-------------------------------|

   D           G           D           G           D       E
e|-2-----------3-----------2-----|-----3-----------2-------0.----|
B|-3-----------3-----------3-----|-----3-----------3-------0.----|
G|o2-----------0-----------2-----|-----0-----------2------------o|
D|o0-----------0-----------0-----|-----0-----------0------------o|
A|-------------x-----------------|-----x-------------------------|
E|-------------3-----------------|-----3-------------------------|

e|-------------------------------|-------------------------------|
B|-2/----------3/----------5-----|-------------------------------|
G|ox-----------x-----------x-----|------------------------------o|
D|o2/----------4/----------5-----|------------------------------o|
A|-0-----------------------------|-------------------------------|
E|-------------------------------|-------------------------------|

e|-------------------------------|-------------------------------|
B|-2/----------3/----------5/----|-----7----------/-8\-----7-----|
G|-x-----------x-----------x-----|-----x------------x------x-----|
D|-2/----------4/----------5/----|-----7----------/-9\-----7-----|
A|-0-----------------------------|-------------------------------|
E|-------------------------------|-------------------------------|

                           Eno3rd
e|-------------------------0~----|-------------------------------|
B|-------------------------0~----|-------------------------------|
G|---h---p-----------------4~----|-------------------------------|
D|-0---2---0---------------2~----|-------------------------------|
A|-------------------------2~----|-------------------------------|
E|-------------0-------0---0~----|-------------------------------|

   A
e|-------------------------------|-------------------------------|
B|-2-----------2-----------2~----|-------------------------------|
G|o2-----------2-----------2~----|-------------------------------|
D|o2-----------2-----------2~----|-------------------------------|
A|-0-----------0-----------0-----|-----------------0-------------|
E|-------------------------------|-------------------------3~----|

   A
e|-------------------------------|-------------------------------|
B|-2-----------2-----------2~----|-------------------------------|
G|-2-----------2-----------2~----|-------------------------------|
D|-2-----------2-----------2~----|-------------------------------|
A|-0-----------0-----------0-----|-----------------0-------------|
E|-------------------------------|-------------------------3~----|

   A
e|-------------------------------|-------------------------------|
B|-2-----------2-----------2~----|-------------------------------|
G|-2-----------2-----------2~----|-------------------------------|
D|-2-----------2-----------2~----|-------------------------------|
A|-0-----------0-----------0-----|-----------------0-------------|
E|-------------------------------|-------------------------3~----|

   D                       E
e|-------------------------------|-------------------------------|
B|-7-----------7-----------9~----|-------------------------------|
G|-7-----------7-----------9~----|------------------------------o|
D|-7-----------7-----------9~----|------------------------------o|
A|-5-----------5-----------7~----|-------------------------------|
E|-------------------------------|-------------------------------|

  Chorus
  3 times
   D           G           D           G           D       E
e|-2-----------3-----------2-----|-----3-----------2-------0.----|
B|-3-----------3-----------3-----|-----3-----------3-------0.----|
G|o2-----------0-----------2-----|-----0-----------2------------o|
D|o0-----------0-----------0-----|-----0-----------0------------o|
A|-------------x-----------------|-----x-------------------------|
E|-------------3-----------------|-----3-------------------------|

e|-------------------------------|-------------------------------|
B|-------------------------------|-------------------------------|
G|-------------------------------|-------------------------------|
D|-------------------------------|-------------------------------|
A|-3---3---3---2---2---2---------|-------------------------------|
E|-------------------------5---5-|-5---3---3---3---2-------0-----|

  3 times
   D           G           D           G           D       E
e|-2-----------3-----------2-----|-----3-----------2-------0.----|
B|-3-----------3-----------3-----|-----3-----------3-------0.----|
G|o2-----------0-----------2-----|-----0-----------2------------o|
D|o0-----------0-----------0-----|-----0-----------0------------o|
A|-------------x-----------------|-----x-------------------------|
E|-------------3-----------------|-----3-------------------------|

e|-------------------------------|-------------------------------|
B|-------------------------------|-------------------------------|
G|-------------------------------|-------------------------------|
D|-------------------------------|-------------------------------|
A|-3---3---3---2---2---2---------|-------------------------------|
E|-------------------------5---5-|-5---3---3---3---2-------0-----|

  3 times
   D           G           D           G           D       E
e|-2.----------3.----------2.----|-----3.----------2.------0.----|
B|-3.----------3.----------3.----|-----3.----------3.------0.----|
G|o2.----------0.----------2.----|-----0.----------2.-----------o|
D|o0.----------0.----------0.----|-----0.----------0.-----------o|
A|-------------x.----------------|-----x.------------------------|
E|-------------3.----------------|-----3.------------------------|

e|-------------------------------|-------------------------------|
B|-------------------------------|-------------------------------|
G|-------------------------------|-------------------------------|
D|-------------------------------|-------------------------------|
A|-3---3---3---2---2---2---------|-------------------------------|
E|-------------------------5---5-|-5---3---3---3---5-------3-----|

e|-------------------------------|-------------------------------|
B|-------------------------------|-------------------------------|
G|-------------------------------|-------------------------------|
D|-------------------------------|-------------------------------|
A|-3---3---3---2---2---2---------|-------------------------------|
E|-------------------------5---5-|-5---3---3---3---5-------3-----|

e|-------------------------------|-------------------------------|
B|-------------------------------|-------------------------------|
G|-------------------------------|-------------------------------|
D|(2)---------(0)----------------|-------------------------------|
A|-3-----------2----------(3)----|----(2)---------(3)-----(2)----|
E|-------------------------5-----|-----3-----------5-------3-----|
  (second overdubbed guitar shown in parenthesis)

   D
e|-2~-----------------------------|
B|-3~-----------------------------|
G|-2~-----------------------------|
D|-0~-----------------------------|
A|--------------------------------|
E|--------------------------------|

Lyrics

First Verse

Ten score years ago
Defeat the kingly foe
A wondrous dream came into being
Tame the trackless waste
No virgin land left chaste
All shining eyes but never seeing

Chorus

Beneath the noble bird
Between the proudest words
Behind the beauty cracks appear

Once with hands held high
They sang out to the sky
Why do their shadows bow in fear

2nd Verse

Watch the cities rise
Another ship arrives
Earth's melting pot, and ever growing
Fantastic Dreams come true
Inventing something new
The greatest minds, but never knowing

Chorus

Solo

Last Verse

The guns replace the plow
Facades are tarnished now
The principles have been betrayed
The dreams gone stale
But still let hope prevail
History's debt won't be repaid

Chorus


Tabulature Explanation (Ripped off from Jimmy Pena, with some
minor changes):
| = bar line
~ = vibrato or held note
x = percussive note with no pitch; muted note
. = staccato; mute the note immediately after striking it
h = hammer
p = pull
s = slide (used when \ or / don't fit)
^ = bend string up to indicated pitch/fret shown in parenthesis ()
r = release bend to indicated string/fret
/ = slide up
\ = slide down
<5> = natural harmonic (lightly touch the string at fret indicated)
[5] = artificial harmonic (use thumb to follow through the pick attack)
o  \
    }-  repeat sign
o  /

Other pertinent information:
  Tuning:  Standard [EADGBe].
  Key signature:  D
  Effects:  Distortion, Slap back delay
  Chord Chart Below for major chords:

    0     Eno3rd            0       D                       G
  e 0---|---|---|---|     e |---|-O-|---|---|     e |---|---|-O-|---|
  B 0---|---|---|---|     B |---|---|-O-|---|     B |---|---|-O-|---|
  G |---|---|---|-O-|     G |---|-O-|---|---|     G 0---|---|---|---|
  D |---|-O-|---|---|     D 0---|---|---|---|     D 0---|---|---|---|
  A |---|-O-|---|---|     A |---|---|---|---|     A |---|---|-X-|---|
  E 0---|---|---|---|     E |---|---|---|---|     E |---|---|-O-|---|

    0       A                 5     D                 7     E
  e |---|---|---|---|     e |---|---|---|---|     e |---|---|---|---|
  B |---|(O-|---|---|     B |---|---|(O-|---|     B |---|---|(O-|---|
  G |---|(O-|---|---|     G |---|---|(O-|---|     G |---|---|(O-|---|
  D |---|(O-|---|---|     D |---|---|(O-|---|     D |---|---|(O-|---|
  A 0---|---|---|---|     A |-O-|---|---|---|     A |-o-|---|---|---|
  E |---|---|---|---|     E |---|---|---|---|     E |---|---|---|---|

Please provide your comments to cbruce@peco-energy.com.