Rush: Apollo/Dionysus
From the album Hemispheres (Mercury Records)
Copyright 1978 Core Music Publishing
Music by Lee and Lifeson
Lyrics by Peart

Updated 3/4/99 by Tony Kennedy (tkennedy@buckeye.com, bonkrz@yahoo.com)
Updated 4/6/99 by Branden Robinson 

The Solo was done by Jimmy. I cleaned up the rest and got rid of the
"Riff 1" stuff.

Transcribed by Jimmy Pena, Blake Butterworth, Tony Zimmerman, Branden
Robinson, Tony Kennedy, and C. D. Bruce


[Intro]

e:------------------------------------------------------------|
B:------------------------------------------------------------|
G:------4--2--0-----------------------------------------------|
D:---------------4--2--0--------------------------------------|
A:------------------------------------------------------------|
E:------------------------------------------------------------|


e:------------------------------------------------------------|
B:--0-0-0-----0-0-0------0-0-0---0----------------------------|
G:--0-0-0-----4-4-4------0-0-0---4----------------------------|
D:--4-4-4-----2-2-2------4-4-4---2----------------------------|
A:--2-2-2-----4-4-4------2-2-2---4----------------------------|
E:--3-3-3--2--2-2-2-0-2--3-3-3-2-2----------------------------|

NOTE: There's some question as to whether the previous riff
Should be played like:
Any comments on it are welcome.  I just can't decide.
{ alternate
e:------------------------------------------------------------|
B:--0-0-0-----0-0-0------0-0-0---0----------------------------|
G:--0-0-0-----4-4-4------0-0-0---4----------------------------|
D:--4-4-4-----2-2-2------4-4-4---2----------------------------|
A:--5-5-5-----4-4-4------5-5-5---4----------------------------|
E:--3-3-3--2--2-2-2-0-2--3-3-3-2-2----------------------------|
end alternate}

e:------------------------------------------------------------|
B:-0-0-0-0-0---0-0-0-0-0---0-0-0-0-0--0-----------------------|
G:-0-0-0-0-0---4-4-4-4-4---0-0-0-0-0--4-----------------------|
D:-4-4-4-4-4---2-2-2-2-2---4-4-4-4-4--2-----------------------|
A:-2-2-2-2-2---4-4-4-4-4---2-2-2-2-2--4-----------------------|
E:-3-3-3-3-3---2-2-2-2-2---3-3-3-3-3--2-----------------------|

   I bring truth and understanding...

e:------------------------------------------------------------|
B:------------------------------------------------------------|
G:--0-0-0-0-0--4-4--------------------------------------------|
D:--4-4-4-4-4--2-2--------------------------------------------|
A:--2-2-2-2-2--4-4--------------------------------------------|
E:--3-3-3-3-3--2-2--------------------------------------------|

e:------------------------------------------------------------|
B:-------------------------------------------2----------------|
G:--------0-----------2-----------0------------0--------------|
D:------4---4-------2---2-------4---4------2------------------|
A:----2-----------4-----------2----------4--------------------|
E:--3-----------2-----------3----------2----------------------|

   We can build a world of wonder...

e:------------------------------------------------------------|
B:--------------------------------------------2~--------------|
G:--------0-----------2-----------0---------------------------|
D:------4---4-------2---2-------4---4------2------------------|
A:----2-----------4-----------2----------4--------------------|
E:--3-----------2-----------3----------2----------------------|

   I will find you food and shelter...

   Bbmaj7     A7sus4
e:---------------------------------------|--------------------|
B:---------------------------------------|--------------------|
G:--7--7--7----7--7--7----7--7--7----7~--|--7--7--7--7--7~----|
D:--7--7--7----5--5--5----7--7--7----5~--|--7--7--7--7--5~----|
A:--5--5--5----7--7--7----5--5--5----7~--|--5--5--5--5--7~----|
E:--6--6--6--5-5--5--5--6-6--6--6--5-5~--|--6--6--6--6--5~----|


e:------------------------------------------------------------|
B:-----------------------------------------5~-----------------|
G:--------0~---------5~---------0~----------------------------|
D:------7---7~-----5---5~-----7---7~-----5---5~---------------|
A:----5----------7----------5----------7----------------------|
E:--6----------5----------6----------5------------------------|

   You can live in grace and comfort...

e:------------------------------------------------------------|
B:-------------------------------------5~---------------------|
G:--------0~----------5~---------0~----5~---------------------|
D:------7---7~------5---5~-----7---7~--5~---------------------|
A:----5-----------7----------5---------7~---------------------|
E:--6-----------5----------6-----------5~---------------------|


     F#7/11                         A9
e:----0~---------0~------0~-----|---0~-----0~--0~---|---------|
B:----0~---------0~------0~-----|---0~-----0~--0~---|---------|
G:o---3~---------3~------3~----o|---6~-----6~--6~---|---------|
D:o---4~---------4~------4~----o|---7~-----7~--7~---|---------|
A:----4~---------4~------4~-----|---7~-----7~--7~---|---------|
E:----2~---------2~------2~-----|---5~-----5~--5~---|---------|


e:-0~--0-0-0--0-0-0-0---|-------------------------------------|
B:-0~--0-0-0--0-0-0-0---|-------------------------------------|
G:-6~--6-6-6--3-3-3-3---|---7-6-------------------------------|
D:-7~--7-7-7--4-4-4-4---|-------7~----------------------------|
A:-7~--7-7-7--4-4-4-4---|-------------------------------------|
E:-5~--5-5-5--2-2-2-2---|-------------------------------------|


   The People were delighted...

e:----5-4----------5-4----------3--3--3--2-3-2---|------------|
B:----5-5----------5-5----------3--3--3--3-3-3---|------------|
G:----4-4----------4-4----------2--2--2--2-2-2---|------------|
D:---------------------------0-------------------|------------|
A:-----------------------------------------------|----0-2-----|
E:-0----------0-0---------0--------------------0-|--4---------|


   They ran to build their cities...

e:------------------------------------------------------------|
B:--10-9-------2-2-2------------------------------------------|
G:--9--9----6--2-2-2----2-2-2-2--4-4-4-4----------------------|
D:--9--9----6--2-2-2----2-2-2-2--4-4-4-4----2-----------------|
A:-------7--4--0-0-0----0-0-0-0--2-2-2-2----4-2-4-5-4-2-------|
E:-------------------4----------------------------------------|

   But one day the streets fell silent...

e:----5-4----------5-4----------3--3--3--2-3-2---|------------|
B:----5-5----------5-5----------3--3--3--3-3-3---|------------|
G:----4-4----------4-4----------2--2--2--2-2-2---|------------|
D:---------------------------0-------------------|------------|
A:-----------------------------------------------|----0-2-----|
E:-0----------0-0---------0--------------------0-|--4---------|

   The urge to build these fine things...

e:------------------------------------------------------------|
B:--10-9-------2-2-2------------------------------------------|
G:--9--9----6--2-2-2----2-2-2-2--4-4-4-4----------------------|
D:--9--9----6--2-2-2----2-2-2-2--4-4-4-4----2-----------------|
A:-------7--4--0-0-0----0-0-0-0--2-2-2-2----4-2-4-5-4-2-------|
E:-------------------4----------------------------------------|

   The wise men were consulted...

e:----5-4----------5-4----------3--3--3--2-3-2---|------------|
B:----5-5----------5-5----------3--3--3--3-3-3---|------------|
G:----4-4----------4-4----------2--2--2--2-2-2---|------------|
D:---------------------------0-------------------|------------|
A:-----------------------------------------------|----0-2-----|
E:-0----------0-0---------0--------------------0-|--4---------|

   In quest for Dionysus...

e:------------------------------------------------------------|
B:--10-9-------2-2-2------------------------------------------|
G:--9--9----6--2-2-2----2-2--4-4---6-6------------------------|
D:--9--9----6--2-2-2----2-2--4-4---6-6------------------------|
A:-------7--4--0-0-0----0-0--2-2---4-4--5-4-5-4---------------|
E:-------------------4\-------------------------5-------------|

e:------------------------------------------------------------|
B:------------------------------------------------------------|
G:--4-4-4-4--6-6-6-6------------------------------------------|
D:--4-4-4-4--6-6-6-6------------------------------------------|
A:--2-2-2-2--4-4-4-4--6-6-7-6---------------------------------|
E:----------------------------7-------------------------------|

Under Solo

e:----------|-----------|-----------|-------------------------|
B:----------|-----------|-----------|-------------------------|
G:--8-8-8-8-|--8-8-8-8--|--3-3-3-3--|--3-3-3-3----------------|
D:--9-9-9-9-|--9-9-9-9--|--4-4-4-4--|--4-4-4-4----------------|
A:--9-9-9-9-|--9-9-9-9--|--4-4-4-4--|--4-4-4-4----------------|
E:--7-7-7-7-|--7-7-7-7--|--2-2-2-2--|--2-2-2-2----------------|

e:----------|-----------|-----------|-------------------------|
B:--7-7-7-7-|--7-7-7-7--|-----------|-------------------------|
G:--7-7-7-7-|--7-7-7-7--|--6-6-6-6--|--6-6-6-6----------------|
D:--7-7-7-7-|--7-7-7-7--|--7-7-7-7--|--7-7-7-7----------------|
A:--5-5-5-5-|--5-5-5-5--|--7-7-7-7--|--7-7-7-7----------------|
E:----------|-----------|--5-5-5-5--|--5-5-5-5----------------|

e:----------|-----------|-----------|-------------------------|
B:----------|-----------|-----------|-------------------------|
G:--8-8-8-8-|--8-8-8-8--|--3-3-3-3--|--3-3-3-3----------------|
D:--9-9-9-9-|--9-9-9-9--|--4-4-4-4--|--4-4-4-4----------------|
A:--9-9-9-9-|--9-9-9-9--|--4-4-4-4--|--4-4-4-4----------------|
E:--7-7-7-7-|--7-7-7-7--|--2-2-2-2--|--2-2-2-2----------------|

Solo

[Guitar Solo] - I can't tell whether the pick slides are actually pick
        slides, or if Alex is running his hands up and down the neck
        along the strings in a legato fashion.

e:---------------------------------[2]-----------|
B:----2~---5--2---2~-------------------5--2------|
G:----4b6~----4b6-4b6~---------------------------|
D:-----------------------------4-------------4---|
A:--------------------x\---/x--------------------|
E:--------------------x\---/x--------------------|

e:-------------------------------------------------------------------------|
B:--------17b19~-19-17--14h15p14----14-------------------------------------|
G:-------------------------------15----15---15-16-18b20-18b20-18b20---15-16|
D:-------------------------------------------------------------------------|
A:-x\--/x------------------------------------------------------------------|
E:-x\--/x------------------------------------------------------------------|

e:----------------------|-15b17~~---------------------------------------|
B:----------------------|----------14-15-15-17-17b19--15h17p15-14h15p14-|
G:-15h16p15----14-------|-----------------------------------------------|
D:-----------------14~~-|-----------------------------------------------|
A:----------------------|-----------------------------------------------|
E:----------------------|-----------------------------------------------|

e:-------------------------------------------------------------|
B:--14--15--17-17b19-17b19--17~---14-15----14-15-14------------|
G:--------------------------------------16----------16~\-------|
D:-------------------------------------------------------------|
A:-------------------------------------------------------------|
E:-------------------------------------------------------------|

e:------------------|----------------------------|----------------------|
B:--------7---------|----------------------------|----------------------|
G:---6b8~~~~~r6--6--|---4h6p4--3h4p3--1h3p1------|--------3--4-----3----|
D:------------------|------------------------4---|--4--6--------6-------|
A:------------------|----------------------------|----------------------|
E:------------------|----------------------------|----------------------|

e:-----------------------------------------------------------|
B:-------------------------4--------4--5-----4--5--5b7~------|
G:-4-----3--4--6--3--4--6-----4--6--------6------------------|
D:-----------------------------------------------------------|
A:-----------------------------------------------------------|
E:-----------------------------------------------------------|

e:---------------------------------------------------------|
B:-------------------------0~-----------------------0------|
G:-----------0~----------0---0~------0~-----------0--------|
D:---------2---2~------2-----------2---2~-------2----------|
A:-------3-----------3-----------3------------3------------|
E:-----1-----------1-----------1------------1--------------|

e:------------------------------------------------------------|
B:--0-0-0-----0-0-0------0-0-0---0----------------------------|
G:--0-0-0-----4-4-4------0-0-0---4----------------------------|
D:--4-4-4-----2-2-2------4-4-4---2----------------------------|
A:--2-2-2-----4-4-4------2-2-2---4----------------------------|
E:--3-3-3--2--2-2-2-0-2--3-3-3-2-2----------------------------|

   I bring love to give you solace...

e:------------------------------------------------------------|
B:------------------------------------------------------------|
G:--0-0-0-0-0--4-4--------------------------------------------|
D:--4-4-4-4-4--2-2--------------------------------------------|
A:--2-2-2-2-2--4-4--------------------------------------------|
E:--3-3-3-3-3--2-2--------------------------------------------|

e:------------------------------------------------------------|
B:-------------------------------------------2----------------|
G:--------0-----------2-----------0------------0--------------|
D:------4---4-------2---2-------4---4------2------------------|
A:----2-----------4-----------2----------4--------------------|
E:--3-----------2-----------3----------2----------------------|

   You need only trust your feelings...

e:------------------------------------------------------------|
B:--------------------------------------------2~--------------|
G:--------0-----------2-----------0---------------------------|
D:------4---4-------2---2-------4---4------2------------------|
A:----2-----------4-----------2----------4--------------------|
E:--3-----------2-----------3----------2----------------------|

   I bring laughter, I bring music...

   Bbmaj7     A7sus4
e:---------------------------------------|--------------------|
B:---------------------------------------|--------------------|
G:--7--7--7----7--7--7----7--7--7----7~--|--7--7--7--7--7~----|
D:--7--7--7----5--5--5----7--7--7----5~--|--7--7--7--7--5~----|
A:--5--5--5----7--7--7----5--5--5----7~--|--5--5--5--5--7~----|
E:--6--6--6--5-5--5--5--6-6--6--6--5-5~--|--6--6--6--6--5~----|


e:------------------------------------------------------------|
B:-----------------------------------------5~-----------------|
G:--------0~---------5~---------0~----------------------------|
D:------7---7~-----5---5~-----7---7~-----5---5~---------------|
A:----5----------7----------5----------7----------------------|
E:--6----------5----------6----------5------------------------|

   Throw off those chains of reason...

e:------------------------------------------------------------|
B:-------------------------------------5~---------------------|
G:--------0~----------5~---------0~----5~---------------------|
D:------7---7~------5---5~-----7---7~--5~---------------------|
A:----5-----------7----------5---------7~---------------------|
E:--6-----------5----------6-----------5~---------------------|


     F#7/11                         A9
e:----0~---------0~------0~-----|---0~-----0~--0~---|---------|
B:----0~---------0~------0~-----|---0~-----0~--0~---|---------|
G:o---3~---------3~------3~----o|---6~-----6~--6~---|---------|
D:o---4~---------4~------4~----o|---7~-----7~--7~---|---------|
A:----4~---------4~------4~-----|---7~-----7~--7~---|---------|
E:----2~---------2~------2~-----|---5~-----5~--5~---|---------|


e:-0~--0-0-0--0-0-0-0---|-------------------------------------|
B:-0~--0-0-0--0-0-0-0---|-------------------------------------|
G:-6~--6-6-6--3-3-3-3---|---7-6-------------------------------|
D:-7~--7-7-7--4-4-4-4---|-------7~----------------------------|
A:-7~--7-7-7--4-4-4-4---|-------------------------------------|
E:-5~--5-5-5--2-2-2-2---|-------------------------------------|

   The cities were abandoned...

e:----5-4----------5-4----------3--3--3--2-3-2---|------------|
B:----5-5----------5-5----------3--3--3--3-3-3---|------------|
G:----4-4----------4-4----------2--2--2--2-2-2---|------------|
D:---------------------------0-------------------|------------|
A:-----------------------------------------------|----0-2-----|
E:-0----------0-0---------0--------------------0-|--4---------|

   They danced and lived as brothers...

e:------------------------------------------------------------|
B:--10-9-------2-2-2------------------------------------------|
G:--9--9----6--2-2-2----2-2-2-2--4-4-4-4----------------------|
D:--9--9----6--2-2-2----2-2-2-2--4-4-4-4----2-----------------|
A:-------7--4--0-0-0----0-0-0-0--2-2-2-2----4-2-4-5-4-2-------|
E:-------------------4----------------------------------------|

   Food and wine they had aplenty...

e:----5-4----------5-4----------3--3--3--2-3-2---|------------|
B:----5-5----------5-5----------3--3--3--3-3-3---|------------|
G:----4-4----------4-4----------2--2--2--2-2-2---|------------|
D:---------------------------0-------------------|------------|
A:-----------------------------------------------|----0-2-----|
E:-0----------0-0---------0--------------------0-|--4---------|

   The people were contented...

e:------------------------------------------------------------|
B:--10-9-------2-2-2------------------------------------------|
G:--9--9----6--2-2-2----2-2-2-2--4-4-4-4----------------------|
D:--9--9----6--2-2-2----2-2-2-2--4-4-4-4----2-----------------|
A:-------7--4--0-0-0----0-0-0-0--2-2-2-2----4-2-4-5-4-2-------|
E:-------------------4----------------------------------------|

   But the winter fell upon them...

e:----5-4----------5-4----------3--3--3--2-3-2---|------------|
B:----5-5----------5-5----------3--3--3--3-3-3---|------------|
G:----4-4----------4-4----------2--2--2--2-2-2---|------------|
D:---------------------------0-------------------|------------|
A:-----------------------------------------------|----0-2-----|
E:-0----------0-0---------0--------------------0-|--4---------|

   Bringing wolves and cold starvation...

e:------------------------------------------------------------|
B:--10-9-------2-2-2------------------------------------------|
G:--9--9----6--2-2-2----2-2--4-4---6-6------------------------|
D:--9--9----6--2-2-2----2-2--4-4---6-6------------------------|
A:-------7--4--0-0-0----0-0--2-2---4-4--5-4-5-4---------------|
E:-------------------4\-------------------------5-------------|

e:------------------------------------------------------------|
B:------------------------------------------------------------|
G:--4-4-4-4--6-6-6-6------------------------------------------|
D:--4-4-4-4--6-6-6-6------------------------------------------|
A:--2-2-2-2--4-4-4-4--6-6-7-6---------------------------------|
E:----------------------------7-------------------------------|

e:--0---0---0--0----|---0--0--0--0--|----------------------|
B:--0---0---0--0----|---0--0--0--0--|-------1---1---1------|
G:--6---6---6--6----|---0--0--0--0--|---2---0---2---0------|
D:--7---7---7--7----|---2--2--2--2--|---3---2---2---2------|
A:--7---7---7--7----|---3--3--3--3--|---3---3---0---3------|
E:--5---5---5--5----|---------------|---1---3---1---3------|