Powderfinger - Passenger guitar tab

Passenger - Powderfinger
===================================

This is a great song from the boys from oz... Powderfinger. Have a great
time with this song, cos it's pretty easy and sounds even better unplugged
(as heard on The Panel). I think this version is pretty much correct.

Intro
G | D/F# Bm | Em | Em | x2

VERSE
     G
Caged
         D/F#     Bm               Em  
You hold so tight until your knuckles show
     G
Escape
         D/F#     Bm               Em  
As far away as you could ever know
                  C
You sink them all down
			Em
And watch them float up
			Bm
Until the wheel has spun around
Em                         Am
You will be bound by what you are

PRE CHORUS
E------------------------------------
B-----2-------2-------3-------3------
G---3---3---3---3---4---4---4---4---- x 2
D-4-------4-------5-------5-------5--
A------------------------------------
E------------------------------------
You stand in the corner
With your face stripped of colour
For what?

E------------------------------------
B-----2-------2-------2-------2------
G---3---3---3---3---3---3---3---3----
D-4-------4-------4-------4-------4- 
A------------------------------------
E------------------------------------ F#...
CHORUS
Bm			G		A
If you want to be a passenger
Bm			   G			A
Climb aboard with me were leaving now
Bm			   G		A	
Step outside and see another world
Bm		C#     D      A	   D
Only if you want to be a passenger

G
Chained
         D/F#     Bm               Em  
So many places youd prefer to be
G
Than framed
         D/F#     Bm               Em  
By a picket fence and salary

                  C
You sink them all down

			Em
And watch them float up
			Bm
Until the wheel has spun around
Em                         Am
You will be bound by what you are

PRE CHORUS
E------------------------------------
B-----2-------2-------3-------3------
G---3---3---3---3---4---4---4---4---- x 2
D-4-------4-------5-------5-------5--
A------------------------------------
E------------------------------------
Youre tied to the corner
With your hope twisted under
In knots
E------------------------------------
B-----2-------2-------2-------2------
G---3---3---3---3---3---3---3---3----
D-4-------4-------4-------4-------4- 
A------------------------------------
E------------------------------------ F#...

CHORUS
Bm			G		A
If you want to be a passenger
Bm			   G			A
Climb aboard with me were leaving now
Bm			   G		A	
Step outside and see another world
Bm		C#     D      A	   D     F#
Only if you want to be a passenger

Bm
La la la la la
C#          D
La la la la la
A
La la la la la

---
fender137@yahoo.com.au