Song: Like A Dog
Artist: Powderfinger
Tabbed By: Tom Arthur (tom_a_87@hotmail.com)

Riff 1 (Distorted)
  .   .   .   .    .   .   .   .    .   .   .   .    .   .   .   .
E-------------6-6|-6--------------|----------------|----------------||
B----------------|----------------|-------------2-2|-2--------------||
G----------------|----------------|----------------|----------------||
D-------5--------|-------5--------|-------3--------|-------3--------||
A-6-6-6---6-6----|---6-6---6-6-6-5|-4-4-4---4-4----|---4-4---4-4-4-5||
E----------------|----------------|----------------|----------------||

Riff 2 (Clean)
  .   .   .   .    .   .   .   .    .   .   .   .    .   .   .   .
E-11~~~~~~~~~~~~~|~~~~~~~~~~~~~11-|-9~~~~~~~~~~~~~~|~~~~~~~~~~~~~---|
B----------------|----------------|----------------|-------------11-|
G----------------|----------------|----------------|----------------|
D----------------|----------------|----------------|----------------|
A----------------|----------------|----------------|----------------|
E----------------|----------------|----------------|----------------|

  .   .   .   .    .     .     .     .       .   .   .   .    .   .   .   .  
E-11~~~~~~~~~~~~~|~~~~~~~~~~11^13^11^13^11-|-9~~~~~~~~~~~~~~|~~~~~~~~~~~~~~~~||
G----------------|-------------------------|----------------|----------------||
B----------------|-------------------------|----------------|----------------||
D----------------|-------------------------|----------------|----------------||
A----------------|-------------------------|----------------|----------------||
E----------------|-------------------------|----------------|----------------||

Riff 3 (Distortion)
  .  .  .  .    .  .  .  .
E-------------|-------------||
B-------------|-------------||
G-------------|----------0-1||
D------------0|--1--4--4----||
A-------2-4---|-------------||
E-4---4-------|-------------||

Riff 4 (Distortion)

E----------------|----------------||
B----------------|----------------||
G----------------|----------------||
D-8-8-8-8-8-8-8-8|-6-6-6-6-6-6-6-6||
A-8-8-8-8-8-8-8-8|-6-6-6-6-6-6-6-6||
E-6-6-6-6-6-6-6-6|-4-4-4-4-4-4-4-4||


Order to play:

00:28 - Riff 1 (x6)
01:15 - Riff 2 (x1)
01:30 - Riff 3 (x8)
02:02 - Riff 4 (x1)
02:06 - Riff 1 (x4)
02:37 - Riff 2 (x1)
02:52 - Riff 3 (x10)
03:31 - Drum Fill
03:46 - Riff 3 (x8)

End on:

E----------------|
B----------------|
G----------------|
D----------------|
A----------------|
E-4--------------|


Lyrics:

Riff 1 Lyrics
In all that he takes
In all that he shows
The higher the stakes
The lower the blows
And all the mistakes
That he's never known
Whatever it takes he'll be
Stealing the show

Riff 2 Lyrics
Now he nervously shakes as we rattle his stage
But he's happy to stuck back in his halcyon days
Now we're trying hard to reconcile a history of shame
Now he reinforced the barriers that keep it the same

Riff 3 Lyrics
If you treat me like a dog
And keep me locked in a cage
I'm not relaxed or comfortable
I'm aggravation and shame
If you treat me like a dog
Yeah if you treat me like a dog
Well it's a fine, fine time for the people in the lucky land

If you treat me like a dog
And keep me locked in a cage
I'm not relaxed or comfortable
I'm aggravation and rage

----