Patrick RONDAT
"Amphibia part 4" -tablature-
from the album "Amphibia"

osslau70@atlantic-line.fr {PtitBob} Laurent

===============================================================================
==                           TABLATURE EXPLANATION                           ==
===============================================================================

----5h8------ Hammer
----(8)------ Ghost Note
----5p8------ Pulloff
----5/8------ Slide Up                    
----5\8------ Slide Down               
-----x------- Dead Note (mute)
----5~~~----- Tremolo
----5b(8)---- Bend
----5b(8)r5-- Release
w/b           Whammy bar
pm            Palm muting


Le jeu de Patrick Rondat fait souvent appel aux notes ettoufes ainsi qu'aux 
harmoniques, soyez donc trs prcis dans votre jeu.
De plus, lors de certains passages il m'a t dur de retranscrire l'effet appliqu 
la note joue (slide, hammer...). Ces manques ne dnaturent pas les notes,  vous de
les retrouver.
Cette tablature n'tant pas dcoupe en mesure, une bonne connaissance du morceau est
donc imprative.




intro                pm______                          pm_________________
---------------------------------------------------------------------------
---------------------------------------------------------------------------
-------------------------4--5----------------------------------------------
-2-----3-----2--------2--4--5--2-----3-----2--------3----------------------
-2-----3-----2--------2--------2-----3-----2--------3---3-3-3-3-3-2---0-0--
-0-----1-----0-----------------0-----1-----0--------1---------------3------


STEP-1-


x2 (Muting on all dead notes)
||------------------------------------------------------------------------------
||------------------------------------------------------------------------------
||------------------------------------------------------------------------------
||-2---------2-----2---2---------2-----------------2-----2---2---------3--------
||-2-------3-2-----2---2-------3-2-------2-------3-2-----2---2-------3-3--------
||-0-x-x-x-1-0-x-x-0-x-0-x-x-x-1-0-x-x-x-1-x-x-x-1-0-x-x-0-X-0-X-X-X-1-0-X-X-X--



-------------------------------------------------------------------------------||
-------------------------------------------------------------------------------||
-------------------------------------------------------------------------------||
-2---------2-----2---2---------2-----------------2-----2-----------------------||
-2-------3-2-----2---2-------3-2-------2-------3-2-----2-3-3-3-3-3-2---0-0-----||
-0-X-X-X-1-0-X-X-0-X-0-X-X-X-1-0-X-X-X-1-X-X-X-1-0-X-X-0-------------3---------||

STEP-2-

-------------12---11---9---------------4---5---4-2------------------------------
(14)/9~~~--9----9--------12-10-9~~~--2---2---------5-/7-/9--------16-(16)/17-14-
-----------------------------------------------------------\6~~~----------------
--------------------------------------------------------------------------------
--------------------------------------------------------------------------------
--------------------------------------------------------------------------------



----------------------------------12---11---9---------------4---5---4-2---------------
-17b(19)~~~--(15)/13~----/9~~~--9----9--------12-10-9~~~--2---2---------5-/7-/9-------
--------------------------------------------------------------------------------\6~~~-
--------------------------------------------------------------------------------------
--------------------------------------------------------------------------------------
--------------------------------------------------------------------------------------



-16-17-14-16----14----------------14-16-17-19-14---/19b(21)--r(19)-17~----------
-------------17----16-17-14-16-17----------------------------------------/13~~~-
--------------------------------------------------------------------------------
--------------------------------------------------------------------------------
--------------------------------------------------------------------------------
--------------------------------------------------------------------------------

STEP-3-

pm______________x6_____________________________
----------------||------------------------------||-------------------------------------
----------------||------------------------------||-------------------------------------
-11-8-9----8----||--11-8-9----8-11-8-9----8-----||-11-8-9-11-8-9----8----11-8-9-11-9-8-
--------11---10-||---------11----------11---10--||---------------11---10---------------
----------------||------------------------------||-------------------------------------
----------------||------------------------------||-------------------------------------

STEP-4-

----------12---11---9---------------4---5---4-2-----------------16-17-14-16----14-
-/9~~~--9----9--------12-10-9~~~--2---2---------5-/7-/9---------------------17----
--------------------------------------------------------\6~~~---------------------
----------------------------------------------------------------------------------
----------------------------------------------------------------------------------
----------------------------------------------------------------------------------


                                                                pm_____________
----------------14-16-17-19-14---/19b(21)--r(19)-17~------------------------------
-16-17-14-16-17----------------------------------------/13~~~---------------------
----------------------------------------------------------------11-8-9----8-------
-----------------------------------------------------------------------11---10----
----------------------------------------------------------------------------------
----------------------------------------------------------------------------------

STEP-5-

x7 pm__________________________
||------------------------------||------------------------------------------------
||------------------------------||-------------14-10-12----10------14-10-12-------
||--11-8-9----8-11-8-9----8-----||-11-8-9----8----------13----11------------13----
||---------11----------11---10--||--------11--------------------------------------
||------------------------------||------------------------------------------------
||------------------------------||------------------------------------------------



----------------------------------------11-8-9----8----11-8-9----8----
10-14-10-12----10------14-10-12----10----------10---9---------10---9--
------------13----11------------13-----------------------------------
---------------------------------------------------------------------
---------------------------------------------------------------------
---------------------------------------------------------------------



-12-9---------12-9-6---6-3-------6-9-6---12-9---------12-9-6-3-------6-9-6------
------10---10--------7-----4---4-------7------10---10----------4---4-------7----
---------9-------------------3-------------------9---------------3-----------9--
--------------------------------------------------------------------------------
--------------------------------------------------------------------------------
--------------------------------------------------------------------------------


fast_______________________________________________
-------------14-11-------------12-15-16-17-14--------19-16-------
-------11-14-------12-------13----------------15-----------17----
----11----------------11-12----------------------14-----------16-
-14--------------------------------------------------------------
-----------------------------------------------------------------
-----------------------------------------------------------------


                                                           pm_______________
-16-17-19-16----------19-16----------------16---------------------------------
-------------17----17-------18-------18-19----18------------------------------
----------------16-------------18----------------18-13~~~---------------------
----------------------------------18-----------------------9-9-7-6-4-6-7-6----
-----------------------------------------------------------9-9-7-6-4-6-7-6-7--
---------------------------------------------------------------------------7--

STEP-6-

[solo 1]
Pour viter toute dnaturation lors de sa transcription, du fait la rapidit et
de la complexit du jeu de Patrick, cette partie n'apparaitra pas ici.
Toutefois, voici quelques plans interessants de ce solo.


Plan 1
  ---/18--------------------------------------------------------------------
 --------19-17----------17---------------------------------------------------
---------------18-15-------18-15------------------------------------16-14-----
  -------------------16----------16-14----16----14------------------16-14----
   ------------------------------------16----16----16-14-12-14-12-X---------
  ----------------------------------------------------------------------

Plan 2
 --------------------------------------------------------------------------
  ---9-12----9---------------------------------------------------------------
   -------11---8-11----8------------------------------------------------------
 -------------------11---9-11----9------------------------------/8-----------
 -----------------------------11---9-11----9-----------------11----9~~--------
----------------------------------------11---11-10-9-X-9-X-X----------------

STEP-7-

pm_____________ x7 pm__________________________
----------------||------------------------------||-------------------------------
----------------||------------------------------||-------------14-10-12----10----
-11-8-9----8----||--11-8-9----8-11-8-9----8-----||-11-8-9----8----------13----11-
--------11---10-||---------11----------11---10--||--------11---------------------
----------------||------------------------------||-------------------------------
----------------||------------------------------||-------------------------------



----------------------------------------------------11-8-9----8----11-8-9----8----
-14-10-12----10-14-10-12----10------14-10-12----10---------10---9---------10---9--
----------13-------------13----11------------13-----------------------------------
----------------------------------------------------------------------------------
----------------------------------------------------------------------------------
----------------------------------------------------------------------------------



x3
||-12-9---------12-9-6---6-3-------6-9-6---||---
||------10---10--------7-----4---4-------7-||---
||---------9-------------------3-----------||---
||-----------------------------------------||-9-
||-----------------------------------------||---
||-----------------------------------------||---



fast_______________________________________________
-------------14-11-------------12-15-16-17-14--------19-16-------
-------11-14-------12-------13----------------15-----------17----
----11----------------11-12----------------------14-----------16-
-14--------------------------------------------------------------
-----------------------------------------------------------------
-----------------------------------------------------------------

STEP-8-

(Muting on all dead notes)
------------------------------------------------------------------------------
------------------------------------------------------------------------------
------------------------------------------------------------------------------
-2---------2-----2---2---------2-----------------2-----2---2---------3--------
-2-------3-2-----2---2-------3-2-------2-------3-2-----2---2-------3-3--------
-0-X-X-X-1-0-X-X-0-X-0-X-X-X-1-0-X-X-X-1-X-X-X-1-0-X-X-0-X-0-X-X-X-1-0-X-X-X--



-------------------------------------------------------------------------------
-------------------------------------------------------------------------------
-------------------------------------------------------------------------------
-2---------2-----2---2---------2-----------------2-----2-----------------------
-2-------3-2-----2---2-------3-2-------2-------3-2-----2-3-3-3-3-3-2---0-0-----
-0-X-X-X-1-0-X-X-0-X-0-X-X-X-1-0-X-X-X-1-X-X-X-1-0-X-X-0-------------3---------



-----------------------------------------------------------------------------------------
-----------------------------------------------------------------------------------------
-----------------------------------------------------------------------------------------
-2---------2-----2---2---------------2-----------------2-----2---2---------------3-------
-2-------3-2-----2---2-------2-----3-2-------2-------3-2-----2---2-------2-----3-3-------
-0-X-X-X-1-0-X-X-0-X-0-X-X-x-0-x-X-1-0-X-X-X-1-X-X-X-1-0-X-X-0-x-0-x-x-x-0-x-x-1-0-x-x-x-


-----------------------------------------------------------------------------------
-----------------------------------------------------------------------------------
-----------------------------------------------------------------------------------
-2---------2-----2---2---------------2-----------------2-----2---2---------------3-
-2-------3-2-----2---2-------2-----3-2-------2-------3-2-----2---2-------2-----3-3-
-0-X-X-X-1-0-X-X-0-X-0-X-X-x-0-x-X-1-0-X-X-X-1-X-X-X-1-0-X-X-0-x-0-x-x-x-0-x-x-1-0-


STEP-10-

       x2
-------||---------------------------------------------------------------------
-------||---------------------------------------------------------------------
-------||---------------------------------------------------5-5-5-4-2---------
-------||---------------------------------------------------5-5-------5-------
-5-3-2-||-----------------2-3-----------------2-3-----2-----3-3-------5-5-----
-------||-5--5--3--5--5-5-----5--5--3--5--5-5-----5-5---3-5-----------3-3-0-3-


                                                           pm___      pm___
----------------------------------------------------------------------------||
----------------------------------------------------------------------------||
----------------------------------------------------------------------------||
---------------------------------------------------------3-------2----------||
-----------------2-3-----------------2-3-----2-----------3-------2----------||
-5--5--3--5--5-5-----5--5--3--5--5-5-----5-5---3-5-5-3-0-1-x-x-x-0----x-x-x-||

STEP-11-
                                                            
-------------10---9p7---------------14----15-14p12/10p12~~-/14--------
-(12)/7~~~-7----7-----10-8-7~~~--12----12----------------------h15~~~-
----------------------------------------------------------------------
----------------------------------------------------------------------
----------------------------------------------------------------------
----------------------------------------------------------------------

                                                       
-12-14----12---------------------------------------------------------------------
-------15----15-14-12----14-12-------12-----------------------------------------
----------------------14-------14-12----14----12-------11~~-----[solo 2]-------
-------------------------------------------14----14-14--------------------------
----------------------------------------------------------------------------
------------------------------------------------------------------------------

STEP-12-

------------3-3--------------------3-3-------------------------------------3-3-
------------3-3--------------------3-3-------------------------------------3-3-
------------1-1--------------------1-1-------------------------------------1-1-
-2--------------------2--------------------2-2---------(2)/3-2-0-2-2-----------
-2------------------2-2--------------------2-2---------(2)/3-2-0-2-2-----------
-0---x-x-x------x-x-2-0---x-x-x--------x-x-0-0---x-x-x-----------0-0-x-x-x-----


------------------3-3----------------------------------------------------------3-3-
------------------3-3----------------------------------------------------------3-3-
------------------1-1----------------------------------------------------------1-1-
-----2-2--------------------2-2---------(2)/3-2-0-2-2------(2)/3-2-0-2-2-----------
-----2-2--------------------2-2---------(2)/3-2-0-2-2------(2)/3-2-0-2-2-----------
-x-x-0-0---x-x-x--------x-x-0-0---x-x-x-----------0-0-x-x-x----------0-0-x-x-x-----


------------------3-3-------------------------------------------------
------------------3-3-------------------------------------------------
------------------1-1-------------------------------------------------
-----2-2--------------------2-2---------(2)/3-2-0-2-2-------(2)/3-2-0-
-----2-2--------------------2-2---------(2)/3-2-0-2-2-------(2)/3-2-0-
-x-x-0-0---x-x-x--------x-x-0-0---x-x-x-----------0-0-x-x-x-----------



----------------------------------|----------------------------------|-------------------
----------------------------------|----------------------------------|-------------------
-12-9-10----9---------------9--12-|-10----9-----------------------10-|-9-----------------
---------12---10-12-9-10-12-------|---12---10-12-9-10----9-10-12-----|---10-12-9-10----9-
----------------------------------|-------------------12-------------|--------------12---
----------------------------------|----------------------------------|-------------------


--------------|---------------------------------|-----------------|----------------|-
--------------|---------------------------------|-----------------|----------------|-
------------9-|---------------------------------|-9-12-10-9-------|----10-9--------|-
-------9-10---|-12-9-10----9---------------9-12-|-----------------|-12------12-----|-
-10-12--------|---------12---10-12-8-10-12------|-----------12/---|------------12/-|-
--------------|---------------------------------|-----------------|----------------|-

              pm_________
--------------------------|--------------------------------------------------------
--------------------------|--------------------------------------------------------
----9---------------------|------------------12--10--9--7--5--7--10--8--7--5--4--5-
-10---12------------------|-9-12-10-9--------12--10--9--7--5--7--10--8--7--5--4--5-
---------10-8-------------|-----------10/----10---8--7--5--3--5---8--7--5--3--2--3-
--------------12-10-10-12-|-----------10/------------------------------------------


---------------------------------------------------------------------------------
-2-------------------------------------------------------------------------------
-2-------------------------------------------------------------------------------
-2----------------------------2--------------------------------------------------
-0----------------------------2--------------------------------------------------
-0----------------------------0--------------------------------------------------