JOYS OF THE EMPTINESS  BY PARADISE LOST

 FROM THE ALBUM "ICON"

Transcribed by Maekawa Tomomi
Typed by Suzuki Tetunori   
Mail:[email protected]
Home Page : http://www.dtinet.or.jp/~tetunori/index.htm

Tune down one step
Riff 1
----------------------------------------------------------------
----------------------------------------------------------------
-----------------------------9-11-12-11----11-9-----------------
----------------5/7-7-7/9-9-------------12--------9-7----7------
--7--5-----5/7----------------------------------------10---10-9-
--------5-------------------------------------------------------

Riff2
------------------------------------------
------------------------------------------
--9-------9-------9-------9---------------
----10-9----10-9----10-9----10-9----------
------------------------------------------
------------------------------------------

Riff3
-------------------------------------------
-------------------------------------------
-------------------------------------------
-9-99-9-99-9-99-9-99--7-77-7-77-7-77-7-77--
-------------------------------------------
-------------------------------------------









Articles liés :

Pin It on Pinterest

Spelling error report

The following text will be sent to our editors: