Artist: Ozzy Osbourne
Song: Shot in the dark
Tabbed by: John Leadman




Tuning:
E |---
B |---
G |---
D |---
B |---
F#|---


During the intro, bend behind the nut with the harmonics.

|-NH =>------------------------------------
|-----12---7---5^---^(5)---3^-^3^-^-^-^----
|------------------------------------------
|------------------------------------------
|------------------------------------------
|------------------------------------------

|----------------5-----------------
|----12--7---5--(5)----------------
|----------------------------------
|-------------------------x\-------
|-------------------------x\-------
|----------------------------------

|---------------------------------------------------------------
|---------------------------------------------------------------
|-7-----6---------------7-----6--------------7-----6-(6)\2----4-
|-7-----7---------------7-----7--------------5-----5-(5)\2h5--5-
|---0-0-----0-0-----0-----0-0-----0-0-----0----0-0--------------
|---------------0-3-------------------0-3-----------------------
1st time                2nd time:
|---------------------||--PH=================|---------------------
|---------------------||---5^-^5^---5^--^5^--------(5)\------------
|-(4)-----------------||-------------------------------------------
|-(5)p0-5-----0-2-0^--||-------------------------------------------
|---------5-0---------||-------------------------------------------
|---------------------||-0-----------------------------------------

"Out on the street...."
|-----------2--|---------------|-------0--|-----------0---|--------
|-------2------|-------2---2---|-------0--|-------2-----2-|--------
|-----4--------|-----4---4---2-|-----4----|-----4---4-----|(repeat)
|---4----------|---4-----------|---5------|---5-----------|--------
|-0------------|-0-------------|-0--------|-0-------------|--------
|--------------|---------------|----------|---------------|--------

"Voices are calling, from inside my head..."
|------------------------------------------------------------------
|------------------------------------------------------------------
|-7-----6------7---x-x--7-----6-----7--x-x-------------------------
|-5-----5------5---x-x--5-----5-----5--x-x-------------------------
|---0-0-------------------0-0--------------------------------------
|------------------------------------------------------------------
"I can hear them..."
|-----------------------------------------------
|-----------------------------------------------
|-7-----6------4---x-x--9-----6-----4--x-x------
|-4-----4------4---x-x--4-----4-----4--x-x------
|---0-0-------------------0-0-------------------
|-----------------------------------------------
"Vanishing memories of things that were said..."
|-------------------------------------------------
|-------------------------------------------------
|-7-----6------7---x-x--7-----6-----7--x-x--------
|-5-----5------5---x-x--5-----5-----5--x-x--------
|---0-0-------------------0-0---------------------
|-------------------------------------------------
"They cant try to hurt me now..."
|-------------------------------------
|-------------------------------------
|-7-----6------4--------6-------------
|-4-----4------4--------4------x------
|-------------------------------------
|---0-0-------------------------------

"But a shot in the dark..."
|-------------------------------------------------------------------
|-------------------------------------------------------------------
|-4------------x-9p7---7--6\----------------------------------------
|-4--------------7-----7--7\----------------------------------------
|-0------------------0-----------12---x-10------7--7--x-8--8------0-
|-----------------------------0--10------8------5--5----6--6--0h3---

|--------------------------------------------------------------
|--------------------------------------------------------------
|-4----------9p7---9--9/11--9-7--------------------------------
|-4----------7-----7--7/9---7-7--------------------------------
|-0-----------------------0------12---x-10------7--7--x-8--8---
|--------------------------------10------8------5--5----6--6---

Guitar Interlude:
|------------------------------------------------------------------
|---10\7-----8\7------------------8\5-----7\5----------------------
|-7------7-------7--------------------5-------5--------------------
|----------7-------7--------------------5-------5---(repeat, then go to solo)
|------------------------------------------------------------------
|------------------------------------------------------------------

Solo:
|-------------7------------7---------------------------------------
|-10^-^10^------10-7-10^-----10p7----7--7h8p7----7-----------------
|---------------------------------9^----------9^----10p9p7---7-9^--
|----------------------------------------------------------9-------
|------------------------------------------------------------------
|------------------------------------------------------------------

|------------------------------------------------------------------
|------------------------------------------------------------------
|-9-6-----6--------------------------------------------------------
|-----9-6---7---7h9------------------------------------------------
|-------------7-----5---5-/-7---7-/-10-\-7~~~~~~~~~----------------
|------------------------------------------------------------------

|-----------------------------|------------------------------------
|-----------------------------|-------10p7---7---------------------
|--------9p6---6-----11p7---7-|-----7------7---7h9^^^^-------------
|-5h7--7-----7---7-7------9---|-7/9--------------------------------
|-----------------------------|------------------------------------
|-----------------------------|------------------------------------

|-2h10p2-3h10p3-5h10p5-7h10p7-5h10p5-3h10p3-7h14p7-9h14p9-10h14p10-12h14p12-
|---------------------------------------------------------------------------
|---------------------------------------------------------------------------
|-----tap w/ pick while holding note with fret hand-------------------------
|---------------------------------------------------------------------------
|-----------------------------------------------------------------end of solo