Artist: Ozzy Osbourne
Song: Mama I'm comin Home
Tabbed by: John Leadman




INTRO:

Eb|-12------------|
Bb|----12---------|
Gb|-------13\11-9-|
Db|---------------|
Ab|---------------|
Eb|---------------|

LEAD RIFF: PLAY FIRST BAR THREE TIMES

Eb|-12^0---11---0---|-9^0---7---0---|-5^0---4---0---|-2^0---0-0-----|
Bb|------0--------0-|-----0-------0-|-----0-------0-|-----0-----0---|
Gb|-----------------|---------------|---------------|-------------1-|
Db|-----------------|---------------|---------------|---------------|
Ab|-----------------|---------------|---------------|---------------|
Eb|-----------------|---------------|---------------|---------------|

Eb|--------0-----|-------0-------|------0-----|-----0-------0---|
Bb|----0-----0---|---0-----0---0-|--0-----0---|-------0-------0-|
Gb|-/2---2-----2-|-2---2-----2---|1---1-----1-|-1/2-----2/4-----|
Db|--------------|---------------|------------|-----------------|
Ab|--------------|---------------|------------|-----------------|
Eb|--------------|---------------|------------|-----------------|

Eb|-12^0---11---0---|-9^0---7---0---|-5^0---4---0---|-2^0---0-0-----|
Bb|------0--------0-|-----0-------0-|-----0-------0-|-----0-----0---|
Gb|-----------------|---------------|---------------|-------------1-|
Db|-----------------|---------------|---------------|---------------|
Ab|-----------------|---------------|---------------|---------------|
Eb|-----------------|---------------|---------------|---------------|

Eb|--------0-----|-------0-------|------0-----|-----0-------0---|
Bb|----0-----0---|---0-----0---0-|--0-----0---|-------0-------0-|
Gb|-/2---2-----2-|-2---2-----2---|1---1-----1-|-1/2-----2/4-----|
Db|--------------|---------------|------------|-----------------|
Ab|--------------|---------------|------------|-----------------|
Eb|--------------|---------------|------------|-----------------|

POWERCHORDS:

| A | E | C# | A | B |

LEAD RIFF

Eb|-12^0---11---0---|-9^0---7---0---|-5^0---4---0---|-2^0---0-0-----|
Bb|------0--------0-|-----0-------0-|-----0-------0-|-----0-----0---|
Gb|-----------------|---------------|---------------|-------------1-|
Db|-----------------|---------------|---------------|---------------|
Ab|-----------------|---------------|---------------|---------------|
Eb|-----------------|---------------|---------------|---------------|

Eb|--------0-----|-------0-------|------0-----|-----0-------0---|
Bb|----0-----0---|---0-----0---0-|--0-----0---|-------0-------0-|
Gb|-/2---2-----2-|-2---2-----2---|1---1-----1-|-1/2-----2/4-----|
Db|--------------|---------------|------------|-----------------|
Ab|--------------|---------------|------------|-----------------|
Eb|--------------|---------------|------------|-----------------|

Eb|-12^0---11---0---|-9^0---7---0---|-5^0---4---0---|-2^0---0-0-----|
Bb|------0--------0-|-----0-------0-|-----0-------0-|-----0-----0---|
Gb|-----------------|---------------|---------------|-------------1-|
Db|-----------------|---------------|---------------|---------------|
Ab|-----------------|---------------|---------------|---------------|
Eb|-----------------|---------------|---------------|---------------|

Eb|--------0-----|-------0-------|------0-----|-----0-------0---|
Bb|----0-----0---|---0-----0---0-|--0-----0---|-------0-------0-|
Gb|-/2---2-----2-|-2---2-----2---|1---1-----1-|-1/2-----2/4-----|
Db|--------------|---------------|------------|-----------------|
Ab|--------------|---------------|------------|-----------------|
Eb|--------------|---------------|------------|-----------------|

POWERCHORDS:

| C# | A | E | E | C# | A | B | B |
| Fm# G#m | A | E | A | E |
| Fm# G#m | A | B | E | A |
| A | B | C | A | E | E | C | A | B | B |

RIFF BEFORE SOLO:

Eb|-3^0---5^0---0--0-----|-3-2-0---0-2-4--0----|-3^0---5^0---0--0-----|
Bb|-----0-----0------0---|-------3----------0--|-----0-----0------0---|
Gb|--------------------1-|--------------------1|--------------------1-|
Db|----------------------|---------------------|----------------------|
Ab|----------------------|---------------------|----------------------|
Eb|----------------------|---------------------|----------------------|

SOLO:
                       Repick bent string  
Eb|-------------------------------------------------------------|
Bb|----------------------12(14)---(14)12^10--12--10--10^12^10-9-|
Gb|------9----9-11(13)------------------------------------------|
Db|-9^11---11---------------------------------------------------|
Ab|-------------------------------------------------------------|
Eb|-------------------------------------------------------------|

Eb|-------------------------------------------------------------|
Bb|----------------------12(14)---(14)12^10--12--10--10^12^10-9-|
Gb|------9----9-11(13)------------------------------------------|
Db|-9^11---11---------------------------------------------------|
Ab|-------------------------------------------------------------|
Eb|-------------------------------------------------------------|

Eb|------------------------------------14(16)-14(16)--12^14^12-|
Bb|------------------------------------------------------------|
Gb|------9----9----11(13)11^9-11--9-11-------------------------|
Db|-9^11---11--------------------------------------------------|
Ab|------------------------------------------------------------|
Eb|------------------------------------------------------------|

Eb|-14(16)14^12-14---16-17-18-19-19(21)-------------------|
Bb|-------------------------------------19(21)19^17----17-|
Gb|-------------------------------------------------18----|
Db|-------------------------------------------------------|
Ab|-------------------------------------------------------|
Eb|-------------------------------------------------------|

POWERCHORDS DURING SOLO:

| B |
| A | E | A | E |
| A | B | C# B A | A | B |

POWERCHORDS:

| C# | A | E | E | C# | A | B | B |
| Fm# G#m | A | E | A | E | E |
| A | B | E | A |

Eb|-----------0-----------0-----|
Bb|-------0-----0-------0---0---|
Gb|-1/2-2---2-----2/4-4-------4-|
Db|-----------------------------|
Ab|-----------------------------|
Eb|-----------------------------|

POWERCHORDS:

| C | A | E | E | C | A | E | E |
| C | A | E | E | C | A |

OUTRO RIF:

Eb|-12^0---11^0---|-9^0---7^0---|-5^0-4^0-5^0---4^0--|-2----0-|
Bb|------0------0-|-----0-----0-|-------------0-----0|------0-|
Gb|---------------|-------------|--------------------|------1-|
Db|---------------|-------------|--------------------|------2-|
Ab|---------------|-------------|--------------------|------2-|
Eb|---------------|-------------|--------------------|------0-|