YONDER STAND THE SINNER - NEIL YOUNG
------------------------------------
from: TIME FADES AWAY


Submitted by: Michael Campbell (MA.MJC@Forsythe.Stanford.EDU)
(via HyperRust)

NOTE: I'm not sure if the B7 and E7 in the last part
are sevenths or plain major chords.

INTRO/FILL RIFF:
B  A                     B  A
|-2--0---------------------2--0--------------------
|-4--2---------------------4--2--------------------
|-4--2---------------------4--2--------------------
|-4--2---------------------4--2-------------------- ...
|-2--0--0--------0--0------2--0--0--------0--0-----
|----------0--0--------0------------0--0--------0--

B A
Well, you heard about the Great Pretender?
B A
I went to see him and he's not the same
B A
Down by the club on the parking lot cinders
B A                          A7
I was to meet him and play his game.
D
Yonder stands the sinner
E          G         B A  B A  B A  B A
He calls my name without a sound.

I saw his face in the attic window
Yellin' down through the broken pane
Sinner man! What you got to run for?
Church bells rang when he said that name.
Yonder stands the sinner
He calls my name without a sound.

Well, I was about as scared as I could be.
I went and hid behind the nearest tree.
Peeked out from behind the branches.
Sinner!
Yonder stands the sinner
He calls my name without a sound

B A             B A  B A  B A  B A
To get down.       (solo...)

D                             B7
I guess you heard about the Great Pretender?
D                            B7     E7
I went to see him and he's not the same.
D                             B7
I guess you heard about the Great Pretender?
D                            B7     E7          A  A7
I went to see him and he's not the same.       (ending riff)

ENDING RIFF:
A              A7
|-0--5--0--------0--|
|-2--------3--1--2--|
|-2--------------0--|
|-2--------------2--|
|-0--------------0--|
|-------------------|