WINTERLONG - NEIL YOUNG
-----------------------
from: DECADE


Submitted by: Kimmel Jyrki (kimmel@research.nokia.com)
Intro, Solo & Corrections by: (Mike Campbell; ma.mjc@forsythe.stanford.edu)
(via HyperRust)

INTRO:
C                                 Am
|----------------|----------0-----|----------------|0---------0----|
|----------------|----1---3-----3-|----1---0---1---|1---1---3------|
|--------------0-|----------------|----------------|2--------------|
|--0---2---3-----|----------------|----------------|2--------------|
|3---------------|3---------------|----------------|0--------------|
|----------------|----------------|----------------|---------------|

F                G                F     C
|----------------|1---------------|3---------------|1-----0-0------|
|----1---0---1---|1---1---1-------|0---0-1-3---1-0-|1-----1-1------|
|----------------|2-----2---2-----|0---------------|2-----0-0------|
|----------------|3---------------|0---------------|3-----2-2------|
|----------------|----------------|2---------------|------3-3------|
|----------------|----------------|3---------------|---------------|

RIFF1:
C
|----------------|------...
|----------------|------...
|--------------0-|------...
|--0---2---3-----|------...
|3---------------|3-----...
|----------------|------...
I waited for you...

C                         Am
I waited for you, Winterlong
F
You seem to be where I belong.
G        F   C     (riff 1)
It's all illusion anyway.

C                                Am
If things should ever turn out wrong
F
And all the love we have is gone,
G           F    C   (riff 2)
It won't be easy on that day.

F             E7
Waiting to follow
Am         Am/G    F
Through the dreamlight of your way
E7          A     (riff 3)
Is not so easy for me now.

D         Dmaj7    D6      D
Half the time has passed away
Bm                      G
Things we thought of yesterday
G(hold)         A(hold)         D       C
Come back now, come back now, oh, oh

SOLO:
C                                 Am
|----------------|----------0-----|----------------|0---------0----|
|----------------|----1---3-----3-|----1---0---1---|1---1---3------|
|--------------0-|----------------|----------------|2--------------|
|--0---2---3-----|----------------|----------------|2--------------|
|3---------------|3---------------|----------------|0--------------|
|----------------|----------------|----------------|---------------|

F                G                F     C
|----------------|1---------------|3---------------|1-----0-0------|
|----1---0---1---|1---1---1-------|0---0-1-3---1-0-|1-----1-1------|
|----------------|2-----2---2-----|0---------------|2-----0-0------|
|----------------|3---------------|0---------------|3-----2-2------|
|----------------|----------------|2---------------|------3-3------|
|----------------|----------------|3---------------|---------------|

C           G    C           G
|----------------|0-----0-0---3---|0-----0-0---3---|
|----------------|1-----1-1---0---|1-----1-1---0---|
|--------------0-|0-----0-0---0---|0-----0-0---0---|
|--0---2---3-----|2-----2-2---0---|2-----2-2---0---|
|3---------------|3-----3-3---2---|3-----3-3---2---|
|----------------|------------3---|------------3---|

Waiting to follow
Through the dreamlight of your way
Is not so easy for me now.

RIFF3

Half the time has passed away
Things we thought of yesterday
Come back now, come back now, oh, oh

RIFF1

C                          F
I waited for you Winterlong
G
You seem to be where I belong.

REPEAT/FADE


RIFF2:
C                F
|----------------|------...
|----------------|------...
|--------------0-|------...
|--0---2---3-----|3-----...
|3---------------|------...
|----------------|------...

RIFF3:
A                D
|----------------|------...
|----------------|------...
|----------------|------...
|----------0---2-|0-----...
|0-2---4---------|------...
|----------------|------...

CHORDS:
E7:    022130	Am/G:  302210
F:     133211	Dmaj7: xx0222
D6:    xx0202