WELFARE MOTHERS - NEIL YOUNG
----------------------------
from: RUST NEVER SLEEPS


Submitted by: Fredrik Johansson (fredrik.johansson@mailbox.hogia.net)

RIFF 1:
e---------
B---------
G--0-h-2--
D--0-h-2--
A--0------
E---------

RIFF 2:
A                     G      A
e----------------------------------
B----------------------------------
G-------------------------------2--
D--2--2--4--5--5--4--2---0---0--2--
A--0---------------------2---2--0--
E------------------------3---3-----

RIFF 3:
A                     G      D
e----------------------------------
B----------------------------------
G-------------------------------2--
D--2--2--4--5--5--4--2---0---0--0--
A--0---------------------2---2-----
E------------------------3---3-----

RIFF 1 (x4)
RIFF 2
RIFF 3
RIFF 2

A  G             A    G            
Welfare mothers, make better lovers
A  G             A    G            
Welfare mothers, make better lovers

w/ RIFF 2
People, pick up on what I'm puttin' down, now
A  G             A    G
Welfare Mothers, make better lovers
w/ RIFF 3
Down at every laudromat in town
A  G             A    G
Welfare Mothers, make better lovers
w/ RIFF 2
While they're washin' you can hear the sound, now
A  G             A    G
Welfare Mothers, make better lovers

D   Bb   E   
DEE VORR CEE!

A G  (x4)

Hard to believe that love is free now
Welfare Mothers, make better lovers
Out on the street with the whole family now
Welfare Mothers, make better lovers
Hard to believe that love is free now
Welfare Mothers, make better lovers

DEE VORR CEE!

SOLO (OVER A G)

RIFF 2
RIFF 3
RIFF 2

D  Bb  E

A  G             A    G            
Welfare mothers, make better lovers
A  G             A    G            
Welfare mothers, make better lovers

People, pick up on what I'm puttin' down, now
Welfare Mothers, make better lovers
Down at every laudromat in town
Welfare Mothers, make better lovers
While they're washin' you can hear the sound, now
Welfare Mothers, make better lovers

DEE VORR CEE!

SOLO (OVER A G)

D   Bb   E   
DEE VORR CEE!